Oops, an error
Loading. Please wait.

Closer I Get Acoustic tab

version 8
version 8
1,267 views 42 this week
1 commentread comment
1 2 3 4 5
x 3
add to favorites
×
Save as Personal and add changes to this tab that will be seen only by you. Learn more ›
×
You can save this tab as Personal to edit and correct it or add notes. All changes will be seen only by you. Learn more »
launch autoscroll
font size
0
reset
how to read this tab
guitar tuner
edit
Autoscroll
slow
fast
+/-
esc
set tempo
stop
Author
Difficulty
intermediate
[Intro]

  (This intro riff plays throughout the entire song with some variations)

e|----1-x----------------------1-x---------3-x-x-----------------------------|
B|----1-x----------------------2-x---------4-x-x-----------------------------|
G|----1-x----------------------3-x---------5-x-x-----------------------------|
D|----3-x----------------------3-x---------5-x-x-----------------------------|
A|-3--3-x-------------0--3--1--1-x-0h3--3--3-x-x-----------------------------|
E|-1--1-x-0--1--3--4---------------------------------------------------------|
   *      *  *  *  *  *  *  *                                                   x2
e|----1-x----------------------1-x---------3-x-x-----------------------------|
B|----1-x----------------------2-x---------4-x-x-----------------------------|
G|----1-x----------------------3-x---------5-x-x-----------------------------|
D|----3-x----------------------3-x---------5-x-x-----------------------------|
A|-3--3-x-------------0--3--1--1-x-0h3--3--3-x-x-----------------------------|
E|-1--1-x-0--1--3--4---------------------------------------------------------|
   *      *  *  *  *  *  *  *

  (Eric plays this riff over the chords. I just mix in the chords to make it sound full)

e|---------------------------------------------------------------------------|
B|--------------4------------------------------------------------------------|
G|------1--3/5-----5\3--1h3--3-------1--3/5--3/5--5/3--1--------1------------|
D|-1h3----------------------------------------------------3--1-----3---------|
A|---------------------------------------------------------------------------|
E|---------------------------------------------------------------------------|
   * *                                                    *  *
e|---------------------------------------------------------------------------|
B|--------------4------------------------------------------------------------|
G|------1--3/5-----5\3--1h3--3-------1--3/5--3/5--5/3--1--------1------------|
D|-1h3----------------------------------------------------3--1-----3---------|
A|---------------------------------------------------------------------------|
E|---------------------------------------------------------------------------|
   * *                                                    *  *


[Verse]

e|----1-x----------------------1-x---------3-x-x-----------------------------|
B|----1-x----------------------2-x---------4-x-x-----------------------------|
G|----1-x----------------------3-x---------5-x-x-----------------------------|
D|----3-x----------------------3-x---------5-x-x-----------------------------|
A|-3--3-x-------------0--3--1--1-x-0h3--3--3-x-x-----------------------------|
E|-1--1-x-0--1--3--4---------------------------------------------------------|
   *      *  *  *  *  *  *  *      * *  *                                       x4
e|----1-x----------------------1-x---------3-x-x-----------------------------|
B|----1-x----------------------2-x---------4-x-x-----------------------------|
G|----1-x----------------------3-x---------5-x-x-----------------------------|
D|----3-x----------------------3-x---------5-x-x-----------------------------|
A|-3--3-x-------------0--3--1--1-x-0h3--3--3-x-x-----------------------------|
E|-1--1-x-0--1--3--4---------------------------------------------------------|
   *      *  *  *  *  *  *  *      * *  *
  (Some variations of the riff every now and then that I like to play)

e|----1-x----------------------1-x---------3-3-x-----------------------------|
B|----1-x----------------------2-x---------4-4-x-----------------------------|
G|----1-x----------------------3-x---------5-5-x-----------------------------|
D|----3-x----------------------3-x---------5-5-x-----------------------------|
A|-3--3-x-------------0--3--1--1-x-0h3--3--3-3-x-----------------------------|
E|-1--1-x-0--1--3--4---------------------------------------------------------|
   *      *  *  *  *  *  *  *      * *  *
e|------1-x----------------------1-1-0--------3-3-x--------------------------|
B|------1-x----------------------2-2-0--------4-4-x--------------------------|
G|------1-x----------------------3-3-0--------5-5-x--------------------------|
D|------3-x----------------------3-3----------5-5-x--------------------------|
A|-1h3--3-x-------------0--3--1--1-1----3--3--3-3-x--------------------------|
E|-1----1-x-0--1--3--4-------------------------------------------------------|
   *        *  *  *  *  *  *  *         *  *
  (Pretty sure he's playing this in the background along with the chords)

e|---------------------------------------------------------------------------|
B|---------------------------------------------------------------------------|
G|------1------------------------1------------3-1----------------------------|
D|--------3------------------------3-----------------------------------------|
A|---------------------------------------------------------------------------|
E|---------------------------------------------------------------------------|


[Chorus]

e|----1-x----------------------1-x---------3-x-x-----------------------------|
B|----1-x----------------------2-x---------4-x-x-----------------------------|
G|----1-x----------------------3-x---------5-x-x-----------------------------|
D|----3-x----------------------3-x---------5-x-x-----------------------------| 
A|-3--3-x-------------0--3--1--1-x-0h3--3--3-x-x-----------------------------|
E|-1--1-x-0--1--3--4---------------------------------------------------------|
   *      *  *  *  *  *  *  *      * *  *                                       x2
e|----1-x----------------------1-x---------3-x-x-----------------------------|
B|----1-x----------------------2-x---------4-x-x-----------------------------|
G|----1-x----------------------3-x---------5-x-x-----------------------------|
D|----3-x----------------------3-x---------5-x-x-----------------------------|
A|-3--3-x-------------0--3--1--1-x-0h3--3--3-x-x-----------------------------|
E|-1--1-x-0--1--3--4---------------------------------------------------------|
   *      *  *  *  *  *  *  *      * *  *
e|---------------------------------------------------------------------------|
B|---------------------------------------------------------------------------|
G|-1/3--5--6/8--6~--5--3~--1------1/3--5--6/8--6~--5--3~--1------------------|
D|---------------------------------------------------------------------------|  
A|---------------------------------------------------------------------------|
E|---------------------------------------------------------------------------|

e|---------------------------------------------------------------------------|
B|---------------------------------------------------------------------------|
G|-1/3--5--6/8--6~--5--3~--1------1/3--5--6/8--6~--5--3~---------------------|
D|---------------------------------------------------------------------------|
A|---------------------------------------------------------------------------|
E|---------------------------------------------------------------------------|

  (Play intro riffs again after the chorus and then transition back into Verse 2 which is the same
   as Verse 1. Play the chorus once more after Verse 2.)


[Instrumental]

e|----1-x----------------------1-x---------3-x-x-----------------------------|
B|----1-x----------------------2-x---------4-x-x-----------------------------|
G|----1-x----------------------3-x---------5-x-x-----------------------------|
D|----3-x----------------------3-x---------5-x-x-----------------------------|
A|-3--3-x-------------0--3--1--1-x-0h3--3--3-x-x-----------------------------|
E|-1--1-x-0--1--3--4---------------------------------------------------------|
   *      *  *  *  *  *  *  *                                                   x2
e|----1-x----------------------1-x---------3-x-x-----------------------------|
B|----1-x----------------------2-x---------4-x-x-----------------------------|
G|----1-x----------------------3-x---------5-x-x-----------------------------|
D|----3-x----------------------3-x---------5-x-x-----------------------------|
A|-3--3-x-------------0--3--1--1-x-0h3--3--3-x-x-----------------------------|
E|-1--1-x-0--1--3--4---------------------------------------------------------|

  (Eric plays this riff over the chords. I just mix in the chords to make it sound full)

e|---------------------------------------------------------------------------|
B|--------------4------------------------------------------------------------|
G|------1--3/5-----5\3--1h3--3-------1--3/5--3/5--5/3--1--------1------------|
D|-1h3----------------------------------------------------3--1-----3---------|
A|---------------------------------------------------------------------------|
E|---------------------------------------------------------------------------|
   * *                                                    *  *
e|---------------------------------------------------------------------------|
B|--------------4------------------------------------------------------------|
G|------1--3/5-----5\3--1h3--3-------1--3/5--3/5--5/3--1--------1------------|
D|-1h3----------------------------------------------------3--1-----3---------|
A|---------------------------------------------------------------------------|
E|---------------------------------------------------------------------------|
   * *                                                    *  *


[Verse]

e|----1-x----------------------1-x---------3-x-x-----------------------------|
B|----1-x----------------------2-x---------4-x-x-----------------------------|
G|----1-x----------------------3-x---------5-x-x-----------------------------|
D|----3-x----------------------3-x---------5-x-x-----------------------------|
A|-3--3-x-------------0--3--1--1-x-0h3--3--3-x-x-----------------------------|
E|-1--1-x-0--1--3--4---------------------------------------------------------|
   *      *  *  *  *  *  *  *      * *  *                                       x4
e|----1-x----------------------1-x---------3-x-x-----------------------------|
B|----1-x----------------------2-x---------4-x-x-----------------------------|
G|----1-x----------------------3-x---------5-x-x-----------------------------|
D|----3-x----------------------3-x---------5-x-x-----------------------------|
A|-3--3-x-------------0--3--1--1-x-0h3--3--3-x-x-----------------------------|
E|-1--1-x-0--1--3--4---------------------------------------------------------|
   *      *  *  *  *  *  *  *      * *  *
  (Some variations of the riff every now and then that I like to play)

e|----1-x----------------------1-x---------3-3-x-----------------------------|
B|----1-x----------------------2-x---------4-4-x-----------------------------|
G|----1-x----------------------3-x---------5-5-x-----------------------------|
D|----3-x----------------------3-x---------5-5-x-----------------------------|
A|-3--3-x-------------0--3--1--1-x-0h3--3--3-3-x-----------------------------|
E|-1--1-x-0--1--3--4---------------------------------------------------------|
   *      *  *  *  *  *  *  *      * *  *
e|------1-x----------------------1-1-0--------3-3-x--------------------------|
B|------1-x----------------------2-2-0--------4-4-x--------------------------|
G|------1-x----------------------3-3-0--------5-5-x--------------------------|
D|------3-x----------------------3-3----------5-5-x--------------------------|
A|-1h3--3-x-------------0--3--1--1-1----3--3--3-3-x--------------------------|
E|-1----1-x-0--1--3--4-------------------------------------------------------|
   *        *  *  *  *  *  *  *         *  *
  (Pretty sure he's playing this in the background along with the chords)

e|---------------------------------------------------------------------------|
B|---------------------------------------------------------------------------|
G|------1------------------------1------------3-1----------------------------|
D|--------3------------------------3-----------------------------------------|
A|---------------------------------------------------------------------------|
E|---------------------------------------------------------------------------|


[Chorus]

e|----1-x----------------------1-x---------3-x-x-----------------------------|
B|----1-x----------------------2-x---------4-x-x-----------------------------|
G|----1-x----------------------3-x---------5-x-x-----------------------------|
D|----3-x----------------------3-x---------5-x-x-----------------------------| 
A|-3--3-x-------------0--3--1--1-x-0h3--3--3-x-x-----------------------------|
E|-1--1-x-0--1--3--4---------------------------------------------------------|
   *      *  *  *  *  *  *  *      * *  *                                       x2
e|----1-x----------------------1-x---------3-x-x-----------------------------|
B|----1-x----------------------2-x---------4-x-x-----------------------------|
G|----1-x----------------------3-x---------5-x-x-----------------------------|
D|----3-x----------------------3-x---------5-x-x-----------------------------|
A|-3--3-x-------------0--3--1--1-x-0h3--3--3-x-x-----------------------------|
E|-1--1-x-0--1--3--4---------------------------------------------------------|
   *      *  *  *  *  *  *  *      * *  *
e|---------------------------------------------------------------------------|
B|---------------------------------------------------------------------------|
G|-1/3--5--6/8--6~--5--3~--1------1/3--5--6/8--6~--5--3~--1------------------|
D|---------------------------------------------------------------------------|  
A|---------------------------------------------------------------------------|
E|---------------------------------------------------------------------------|

e|---------------------------------------------------------------------------|
B|---------------------------------------------------------------------------|
G|-1/3--5--6/8--6~--5--3~--1------1/3--5--6/8--6~--5--3~---------------------|
D|---------------------------------------------------------------------------|
A|---------------------------------------------------------------------------|
E|---------------------------------------------------------------------------|


[Bridge]
 
   (These are the chords he plays after the second chorus. Listen to song for strumming pattern)

e|-4----4--------3--------1----------------4--------4------------------------|
B|-6----4--------4--------1----------------6--------4------------------------|
G|-6----5--------5--------1----------------6--------5------------------------|
D|-6----6--------5--------3----------------6--------6------------------------|
A|-4----6--------3--------3----------------4--------6------------------------|
E|------4-----------------1-------------------------4------------------------|
                                 (Small variation at the end second time around)
e|-4----4--------3--------1----------------4--------4---------6--6-6-6-------|
B|-6----4--------4--------1----------------6--------4---------8--8/9-8-------|
G|-6----5--------5--------1----------------6--------5---------8--8-8-8-------|
D|-6----6--------5--------3----------------6--------6---------8--8-8-8-------|
A|-4----6--------3--------3----------------4--------6---------6--6-6-6-------|
E|------4-----------------1-------------------------4------------------------|

  (He plays this behind the chords. The first time around he skips the first chord
   and comes in when the second chord is being played. Let the notes ring out)
e|---------------------------------------------------------------------------|
B|---------------------4----------1--------------6---------------------------|
G|------------5------5----------1---1----------6----------5------------------|
D|----------6------5----------3-------3------6----------6--------------------|
A|--------6------3----------3-----------3--4----------6----------------------|
E|------4-----------------1-------------------------4------------------------|

e|---------------------------------------------------------------------------|
B|-------6~-6---------------------4-----------1------------------------------|
G|-----6------6----------5------5----------1~----1------6--------------------|
D|---6----------6------6------5----------3------------6---6------6-----------|
A|-4-----------------6------3----------3------------4----------6---6---------|
E|-----------------4-----------------1-----------------------4---------------|

e|---------------------------------------------------------------------------|
B|---------------------8---9---8---------------------------------------------|
G|-----8-------8-----------------8-------------------------------------------|
D|---8---8---8---8---8---8---8-----------------------------------------------|
A|-6-------6-------6---------------------------------------------------------|
E|---------------------------------------------------------------------------|


[Outro]

e|----1-x----------------------1-x---------3-x-x-----------------------------|
B|----1-x----------------------2-x---------4-x-x-----------------------------|
G|----1-x----------------------3-x---------5-x-x-----------------------------|
D|----3-x----------------------3-x---------5-x-x-----------------------------| 
A|-3--3-x-------------0--3--1--1-x-0h3--3--3-x-x-----------------------------|
E|-1--1-x-0--1--3--4---------------------------------------------------------|
   *      *  *  *  *  *  *  *      * *  *                                       x6
e|----1-x----------------------1-x---------3-x-x-----------------------------|
B|----1-x----------------------2-x---------4-x-x-----------------------------|
G|----1-x----------------------3-x---------5-x-x-----------------------------|
D|----3-x----------------------3-x---------5-x-x-----------------------------|
A|-3--3-x-------------0--3--1--1-x-0h3--3--3-x-x-----------------------------|
E|-1--1-x-0--1--3--4---------------------------------------------------------|
   *      *  *  *  *  *  *  *      * *  *
e|---------------------------------------------------------------------------|
B|--------------4------------------------------------------------------------|
G|------1--3/5-----5\3--1h3--3-------1--3/5--3/5--5/3--1--------1------------|
D|-1h3----------------------------------------------------3--1-----3---------|
A|---------------------------------------------------------------------------|
E|---------------------------------------------------------------------------|
   * *                                                    *  *                  x2
e|---------------------------------------------------------------------------|
B|--------------4-----------------------2/4--2/4--2--1-----------------------|
G|------1--3/5-----5\3--1h3--3-------1--3/5--3/5--3--1-----------------------|
D|-1h3-----------------------------------------------------------------------|
A|---------------------------------------------------------------------------|
E|---------------------------------------------------------------------------|
   * *   
                                                   
[Solo]

e|-1--3--4-------------------------------------------------------------------|
B|----------1--4--2~----2--1-------------------------------------------------|
G|----------------------------3~----3--1h3--1--------1-----1-----1-----------|
D|-----------------------------------------------1h3---1h3---1h3-------------|
A|---------------------------------------------------------------------------|
E|---------------------------------------------------------------------------|

e|---------------------------------------------------------------------------|
B|-----4---------------------------------------------------------------------|
G|-3/5---5\3~----1h3--5------1-----1-----1-----1-----1~----------------------|
D|-----------------------1h3---1h3---1h3---1h3---1h3-------------------------|
A|---------------------------------------------------------------------------|
E|---------------------------------------------------------------------------|

e|---------------------------------------------------------------------------|
B|---------------------------------------------------------------------------|
G|-----1-----1-----1-----1-----1~-----1-----1-----1-----1-----1--1/3~--3/1---|
D|-1h3---1h3---1h3---1h3---1h3----1h3---1h3---1h3---1h3---1h3----------------|  x2 
A|---------------------------------------------------------------------------|
E|---------------------------------------------------------------------------|


************************************
| h   Hammer-on
| /   Slide up
| \   Slide down
| ~   Vibrato
************************************

            
            
Suggest correction
Creating personal tab
Creating personal tab
You can edit any tab online and save it as your Personal.

You can edit, replace or remove any tab part or add personal notes – all changes will be seen only by you.

Personal tabs can be accessed anytime from any device, even offline.
Learn more »
Give kudos to tab author, rate the tab!
1 2 3 4 5
comments
print report bad tab
1 comment total.
0 reply
arradyl 10 Jun 12, 2016 04:05 AM

This should have a 5 star rating. Easily the best and most accurate tab on here.

guest
You may want to rate the tab now too:
select rating
Wanna post a correction for this tab? Suggest correction