Oops, an error
Loading. Please wait.

Courage To Grow bass

7,551 views 9 this week
1 commentread comment
1 2 3 4 5
x 4
add to favorites
×
Save as Personal and add changes to this tab that will be seen only by you. Learn more ›
×
You can save this tab as Personal to edit and correct it or add notes. All changes will be seen only by you. Learn more »
launch autoscroll
font size
0
reset
guitar tuner
edit
Autoscroll
slow
fast
+/-
esc
set tempo
stop
Author
Difficulty
Tabbed by Nick Fernandez
NAF4141@yahoo.com

The toughest part is the rhythm that he plays during the verses. Not too bad though. 
should be a pretty accurate tab.

Intro
G|---------------------------------------------------------------------------|
D|---------------------------------------------------------------------------|
A|----6-4----------------6-4---------4-7-----------6-4---------7------9------|
E|--4------6-4-------4-------6-4--6--------------4------6-4------------------|

Verse
G|---------------------------------------------------------------------------|
D|---------------------------------------------------------------------------|
A|---------------4-6--------6-7--7-7-7--6---6-6------------------------------|
E|--44--44--6--------6--4-------------------------7--6-----------------------|

Every 2nd bar through the verse, Marley plays the E on the A string like 4 times really 
together. This is the subtle change that makes the verse sound more varied throughout.

(small bass breakdown) Also, the bass plays something a little different at the end of 
bar, right before it the little guitar breakdown. It starts at 1:25 AND also at 3:00 
the same guitar breakdown.

A|---------------4-6---------------6-7-7-----7-------9--9-----9--------------|
E|--44--44--6--------6--4----------------7------7---------9----------(4)-----|


-->Intro part at 2:00

Verse, then drum and bass only at 2:22

G|---------------------------------------------------------------------------|
D|---------------------------------------------------------------------------|
A|---------------4-6----------7--7----6-7--6-6--6----------------------------|
E|--44--44--6--------6--4-----------------------------7--6-------------------|

G|---------------------------------------------------------------------------|
D|---------------------------------------------------------------------------|
A|---------------4-6---------7777---7-7--6-6-6-------------------------------|
E|--44--44--6--------6--4------------------------7--6------------------------|

Then it is just another verse with the (small bass breakdown) part, Verse again and the 
which is just the intro plus the 3 last notes-

G|-----------------------------------------------------------------------------|
D|-----------------------------------------------------------------------------|
A|----6-4--------------6-4-----------4-7---------------------------------------|
E|--4------6-4------4--------6-4--6---------------4----4----4------------------|
Suggest correction
Creating personal tab
Creating personal tab
You can edit any tab online and save it as your Personal.

You can edit, replace or remove any tab part or add personal notes – all changes will be seen only by you.

Personal tabs can be accessed anytime from any device, even offline.
Learn more »
comments
print report bad tab
1 comment total.
0 reply
rootsriddim 10 Dec 19, 2012 03:37 PM

great job, make sure to really feel the rhythm and groove of this... really sounds great!

guest
You may want to rate the tab now too:
select rating
Wanna post a correction for this tab? Suggest correction