Oops, an error
Loading. Please wait.

Day By Day tab

version 1
version 1

Whole song

Interactive

11,388 views 27 this week
1 commentread comment
1 2 3 4 5
2 more votes to show rating
add to favorites
×
Save as Personal and add changes to this tab that will be seen only by you. Learn more ›
×
You can save this tab as Personal to edit and correct it or add notes. All changes will be seen only by you. Learn more »
launch autoscroll
font size
0
reset
how to read this tab
guitar tuner
edit
Autoscroll
slow
fast
+/-
esc
set tempo
stop
Difficulty
intermediate
     Day By Day - Rebelution

Tabbed by: Nolan
Email: saticoyllnolanb@yahoo.com

Tuning: standard

This is off there newest album Peace of Mind. Such a bad ass song, pretty easy to play 
too. The only thing would be the slide out kinda thing Eric does during the intro riff, 
but that’s all just finding the timeing. Enjoy☺

e|---------------------------------------------------------------------|
B|---------------------------------------------------------------------|
G|---------------------------------------------------------------------|
D|---------------------------------------------------------------------|
A|---------0-2-3-5-3h---2h3p------------2-----22-0-22-0-22-------------|
E|--3-4/0--------------------3-4/---3-5----0---------------------------|

e|---------------------------------------------------------------------|
B|---------------------------------------------------------------------|
G|---------------------------------------------------------------------|
D|---------------------------------------------------------------------|
A|--------0-2-3-5-3h---2h3p------------2-------------------------------|
E|--3-4/0-------------------3-4/---3-5---0-----------------------------|

    Am  Dm  G   Em
e|--5---5---3---7------------------------------------------------------|
B|--5---6---3---8------------------------------------------------------|
G|--5---7---4---9------------------------------------------------------|
D|--7---7---5---9------------------------------------------------------|
A|--7---5---5---7------------------------------------------------------|
E|--5-------3----------------------------------------------------------|

            
            
Suggest correction
Creating personal tab
Creating personal tab
You can edit any tab online and save it as your Personal.

You can edit, replace or remove any tab part or add personal notes – all changes will be seen only by you.

Personal tabs can be accessed anytime from any device, even offline.
Learn more »
Give kudos to tab author, rate the tab!
1 2 3 4 5
comments
print report bad tab
1 comment total.
+2 reply
juergen92 21 Nov 07, 2012 04:50 PM

A|---------0-2-3-5~~~~~~-3p2h3~~~~~~-|
E|--3-4/0----------------------------|

guest
Wanna post a correction for this tab? Suggest correction