Oops, an error
Loading. Please wait.

Fade Away Tab

14,895 views 57 this week
3 commentsread comments
1 2 3 4 5
x 10
add to favorites
launch autoscroll
font size
0
reset
how to read this tab
guitar tuner
Autoscroll
slow
fast
+/-
esc
set tempo
stop
Help us to improve Ultimate-Guitar.com Take our survey!
×
Author
-------------------------------------------------------------------------------
                      Rebelution - Count Me In - Fade Away
-------------------------------------------------------------------------------
Tabbed by: Jesse Ayala (ToLatinKid)
E-mail: jam4u06@yahoo.com

Tuning:Standard

Hello guys! This is one of the first tabs for Rebelution's new album, Count Me
In. It was released only 5 days ago, just to give you an idea of how new this
tab is compared to the release. This is the first tab I have ever created
strictly using my ear, so there MIGHT be mistakes, but I surmise this tab
is at least in the 95%-accurate range (with the exception of the currently
missing solo). So if there are any suggestions, or criticisms, don't hesitate
to leave a comment below, or to email me! Thank you!
        ~Jesse

Edit 6/22/14: I changed the main riff, because Eric plays a G1 with open B throughout
the whole song. Also, 2:45AM pointed out you can tune the D string up to an E,
and play E4 instead of D2 throughout the song, making it easier on the hands.
Thank you 2:45AM :)
        ~Jesse

Edit 2/7/15: Ok, it's been a while, but I finally got the solo in. Now I'm not sure
if the riff played right before the solo is guitar or bass, so if anybody wants
to help me out with that, just message me or email me!
P.S. For the end of the song, keep an eye on the times that I corrected and the amount
of times played back



[Intro] (0:00 - 0:17)

e|---------------------------------------------------------------------------|\
B|-------0-----------0-----------0h2p0--------0h2p0--------------------------| |
G|-------1-----------1-----------1------------1------------------------------| |
D|----2-----2-----2-----2-----2------------2---------------------------------| |
A|-4-----------4-----------0------------0------------------------------------| |
E|---------------------------------------------------------------------------| |
                                                                               x2
e|---------------------------------------------------------------------------| |
B|-------0h2p0---------0h2p0--------0h2p0--------0h2p0-----------------------| |
G|-------1-------------1------------1------------1---------------------------| |
D|----2-------------2------------2------------2------------------------------| |
A|---------------------------------------------------------------------------| |
E|-0-------------0------------0------------0---------------------------------|/


[Verse 1] (0:17 - 0:34)

e|---------------------------------------------------------------------------|\
B|---------------------------------------------------------------------------| |
G|-------1-----------1-----------1-----------1-------------------------------| |
D|----2-----2-----2-----2-----2-----2-----2-----2----------------------------| |
A|-4-----------4-----------0-----------0-------------------------------------| |
E|---------------------------------------------------------------------------| |
                                                                               x2
e|---------------------------------------------------------------------------| |
B|---------------------------------------------------------------------------| |
G|-------1-----------1-----------1-----------1-------------------------------| |
D|----2-----2-----2-----2-----2-----2-----2-----2----------------------------| |
A|---------------------------------------------------------------------------| |
E|-0-----------0-----------0-----------0-------------------------------------|/


[Pre-Chorus] (0:34 - 0:51)

e|---------------------------------------------------------------------------|\
B|-------0-----------0-----------0h2p0--------0h2p0--------------------------| |
G|-------1-----------1-----------1------------1------------------------------| |
D|----2-----2-----2-----2-----2------------2---------------------------------| |
A|-4-----------4-----------0------------0------------------------------------| |
E|---------------------------------------------------------------------------| |
                                                                               x2
e|---------------------------------------------------------------------------| |
B|-------0h2p0---------0h2p0--------0h2p0--------0h2p0-----------------------| |
G|-------1-------------1------------1------------1---------------------------| |
D|----2-------------2------------2------------2------------------------------| |
A|---------------------------------------------------------------------------| |
E|-0-------------0------------0------------0---------------------------------|/


[Chorus] (0:52 - 1:09)

Guitar 1:

e|---------------------------------------------------------------------------|\
B|-------0-----------0-----------0h2p0--------0h2p0--------------------------| |
G|-------1-----------1-----------1------------1------------------------------| |
D|----2-----2-----2-----2-----2------------2---------------------------------| |
A|-4-----------4-----------0------------0------------------------------------| |
E|---------------------------------------------------------------------------| |
                                                                               x2
e|---------------------------------------------------------------------------| |
B|---------------------------------------------------------------------------| |
G|-------1-------------1------------1------------1---------------------------| |
D|----2-------------2------------2------------2------------------------------| |
A|---------------------------------------------------------------------------| |
E|-0-----------0-----------0-----------0-------------------------------------|/

Guitar 2 (Throw in some funky echo and maybe some phaser or flange):

e|-12\4---------------------------4/12---------------------------------------|
B|---------------------------------------------------------------------------|
G|---------------------------------------------------------------------------|
D|---------------------------------------------------------------------------|
A|---------------------------------------------------------------------------|
E|---------------------------------------------------------------------------|

e|-12\4---------------------------4/12--------------------------------12\----|
B|---------------------------------------------------------------------------|
G|---------------------------------------------------------------------------|
D|---------------------------------------------------------------------------|
A|---------------------------------------------------------------------------|
E|---------------------------------------------------------------------------|


[Verse 2] (1:09 - 1:26)

e|---------------------------------------------------------------------------|\
B|---------------------------------------------------------------------------| |
G|-------1-----------1-----------1-----------1-------------------------------| |
D|----2-----2-----2-----2-----2-----2-----2-----2----------------------------| |
A|-4-----------4-----------0-----------0-------------------------------------| |
E|---------------------------------------------------------------------------| |
                                                                               x2
e|---------------------------------------------------------------------------| |
B|---------------------------------------------------------------------------| |
G|-------1-----------1-----------1-----------1-------------------------------| |
D|----2-----2-----2-----2-----2-----2-----2-----2----------------------------| |
A|---------------------------------------------------------------------------| |
E|-0-----------0-----------0-----------0-------------------------------------|/


[Pre-Chorus] (1:27 - 1:44)

e|---------------------------------------------------------------------------|\
B|-------0-----------0-----------0h2p0--------0h2p0--------------------------| |
G|-------1-----------1-----------1------------1------------------------------| |
D|----2-----2-----2-----2-----2------------2---------------------------------| |
A|-4-----------4-----------0------------0------------------------------------| |
E|---------------------------------------------------------------------------| |
                                                                               x2
e|---------------------------------------------------------------------------| |
B|-------0h2p0---------0h2p0--------0h2p0--------0h2p0-----------------------| |
G|-------1-------------1------------1------------1---------------------------| |
D|----2-------------2------------2------------2------------------------------| |
A|---------------------------------------------------------------------------| |
E|-0-------------0------------0------------0---------------------------------|/


[Chorus] (1:44 - 2:02)

Guitar 1:

e|---------------------------------------------------------------------------|\
B|-------0-----------0-----------0h2p0--------0h2p0--------------------------| |
G|-------1-----------1-----------1------------1------------------------------| |
D|----2-----2-----2-----2-----2------------2---------------------------------| |
A|-4-----------4-----------0------------0------------------------------------| |
E|---------------------------------------------------------------------------| |
                                                                               x2
e|---------------------------------------------------------------------------| |
B|-------0h2p0---------0h2p0--------0h2p0--------0h2p0-----------------------| |
G|-------1-------------1------------1------------1---------------------------| |
D|----2-------------2------------2------------2------------------------------| |
A|---------------------------------------------------------------------------| |
E|-0-----------0-----------0-----------0-------------------------------------|/

Guitar 2 (Throw in some funky echo and maybe some phaser or flange):

e|-12\4---------------------------4/12---------------------------------------|
B|---------------------------------------------------------------------------|
G|---------------------------------------------------------------------------|
D|---------------------------------------------------------------------------|
A|---------------------------------------------------------------------------|
E|---------------------------------------------------------------------------|

e|-12\4---------------------------4/12--------------------------------12\----|
B|---------------------------------------------------------------------------|
G|---------------------------------------------------------------------------|
D|---------------------------------------------------------------------------|
A|---------------------------------------------------------------------------|
E|---------------------------------------------------------------------------|


[Solo] (2:02 - 2:37)

Guitar 1:

e|---------------------------------------------------------------------------|\
B|-------0-----------0-----------0h2p0--------0h2p0--------------------------| |
G|-------1-----------1-----------1------------1------------------------------| |
D|----2-----2-----2-----2-----2------------2---------------------------------| |
A|-4-----------4-----------0------------0------------------------------------| |
E|---------------------------------------------------------------------------| |
                                                                               x4
e|---------------------------------------------------------------------------| |
B|-------0h2p0---------0h2p0--------0h2p0--------0h2p0-----------------------| |
G|-------1-------------1------------1------------1---------------------------| |
D|----2-------------2------------2------------2------------------------------| |
A|---------------------------------------------------------------------------| |
E|-0-------------0------------0------------0---------------------------------|/


[Solo]

Guitar 2 (2:19 - 2:37)

e|---------------------------------------------------------------------------|\
B|----7/9-7--5-------------------10-9-7--------------------------------------| |
G|---------------------------------------------------------------------------| |
D|---------------------------------------------------------------------------| |
A|---------------------------------------------------------------------------| |
E|---------------------------------------------------------------------------| |
                                                                               x2              
e|---------------------------------------------------------------------------| |
B|-7-7-----------------------------------------------------------------------| |
G|---------------------------------------------------------------------------| |
D|---------------------------------------------------------------------------| |
A|---------------------------------------------------------------------------| |
E|---------------------------------------------------------------------------|/



[Collision] (Solo/Chorus) (2:37 - 3:11)

Guitar 1

e|---------------------------------------------------------------------------|\
B|-------0-----------0-----------0h2p0--------0h2p0--------------------------| |
G|-------1-----------1-----------1------------1------------------------------| |
D|----2-----2-----2-----2-----2------------2---------------------------------| |
A|-4-----------4-----------0------------0------------------------------------| |
E|---------------------------------------------------------------------------| |
                                                                               x4
e|---------------------------------------------------------------------------| |
B|-------0h2p0---------0h2p0--------0h2p0--------0h2p0-----------------------| |
G|-------1-------------1------------1------------1---------------------------| |
D|----2-------------2------------2------------2------------------------------| |
A|---------------------------------------------------------------------------| |
E|-0-------------0------------0------------0---------------------------------|/ 

Guitar 2 (2:37 - 3:02)

e|---------------------------------------------------------------------------|\
B|----7/9-7--5-------------------10-9-7--------------------------------------| |
G|---------------------------------------------------------------------------| |
D|---------------------------------------------------------------------------| |
A|---------------------------------------------------------------------------| |
E|---------------------------------------------------------------------------| |
                                                                               x3              
e|---------------------------------------------------------------------------| |
B|-7-7-----------------------------------------------------------------------| |
G|---------------------------------------------------------------------------| |
D|---------------------------------------------------------------------------| |
A|---------------------------------------------------------------------------| |
E|---------------------------------------------------------------------------|/


[Outro] (3:12 - 3:29)

e|---------------------------------------------------------------------------|\
B|-------0-----------0-----------0h2p0--------0h2p0--------------------------| |
G|-------1-----------1-----------1------------1------------------------------| |
D|----2-----2-----2-----2-----2------------2---------------------------------| |
A|-4-----------4-----------0------------0------------------------------------| |
E|---------------------------------------------------------------------------| |
                                                                               x2
e|---------------------------------------------------------------------------| |
B|-------0h2p0---------0h2p0--------0h2p0--------0h2p0-----------------------| |
G|-------1-------------1------------1------------1---------------------------| |
D|----2-------------2------------2------------2------------------------------| |
A|---------------------------------------------------------------------------| |
E|-0-------------0------------0------------0---------------------------------|/


************************************

| /   slide up
| \   slide down
| h   hammer-on
| p   pull-off

************************************
Suggest correction
comments
print report bad tab
3 comments total.
0 reply
2:45AM 328 Jun 22, 2014 12:21 AM

Perfect tab, but one way to make this song easier to play would be to tune the D string up to an E, that way you don't have to hold down the 2nd fret for the entire song. Makes some of the positions easier too. Good job!

0 reply
ToLatinKid 85 Jun 22, 2014 03:28 AM

Thank you! There's actually going to be a little tweak to the main riff here in a little bit. I noticed that Eric plays the G1 with open B basically throughout the whole song. Check it out in a little bit :) But the comment is much appreciated, I'll leave a note at the top about that!

0 reply
tim_lock 123 Aug 25, 2014 05:09 PM

Thanks man!

guest
You may want to rate the tab now too:
select rating
Wanna post a correction for this tab? Suggest correction