Oops, an error
Loading. Please wait.

Feeling Alright tab

version 1
version 1

Whole song

210,601 views 138 this week
8 commentsread comments
1 2 3 4 5
x 13
add to favorites
×
Save as Personal and add changes to this tab that will be seen only by you. Learn more ›
×
You can save this tab as Personal to edit and correct it or add notes. All changes will be seen only by you. Learn more »
launch autoscroll
font size
0
reset
how to read this tab
guitar tuner
edit
Autoscroll
slow
fast
+/-
esc
set tempo
stop
Author
Unregistered
[Intro]

(will only get the same feeling if played acoustically)

e|---------------------------------0h2p0---------2---5---3-----|
B|--------------------------------------3--0-----3---3---3-----|
G|----------------4--5----4-----------------2------------------|
D|-----------5--7--------------0------------0------------------|
A|-------------------0-----------------------------------------|
E|----0~------------------3------------------------------------|


e|-------------------------------------------------------------|
B|-------------------------------------------------------------|
G|---------4--5---4--------2-0--0-0----------------------------|
D|----5--7-0----------0----0-0--4-0-------4--4h5p4h5-5---------|
A|------------0---------------------2~-------------------------|
E|----0~----------3--------------------------------------------|


its all downhill from here

were feelin' al-right, yeah

e|-------------------------------2~2x-----2~2x-----2~2x-----2~2x-----|
B|---------------5------3--------3~3x-----3~3x-----3~3x-----3~3x-----|
G|---------------5------4--------2~2x-----2~2x-----4~4x-----4~4x-----|
D|---------------5------5--------------------------------------------|
A|-------------------------------------------------------------------|
E|-------------------------------------------------------------------|

were feelin good, feelin al - right,     yeah ye-ah ya

e|-----------3~3x---------3~3x----------------------------2~2x-----2~2x-----2~2x-----2~2x----|
B|-----------3~3x---------3~3x-------5~5x------3~3x-------3~3x-----3~3x-----3~3x-----3~3x----|
G|-----------4~4x---------4~4x-------5~5x------4~4x-------2~2x-----2~2x-----4~4x-----4~4x----|
D|-----------5~5x---------5~5x-------5~5x------5~5x------------------------------------------|
A|-------------------------------------------------------------------------------------------|
E|-------------------------------------------------------------------------------------------|


the rest of the entire song is virtually identical as far as the rhythm guitar(which is 
only guitar) goes, but they do play the intro riff near the end,
which once again is exactly the same

i suggest going ahead and playing the song along with your practicing, as which wise for 
using tablature to learn songs

here is that rhythm again

e|-----------3~3x---------3~3x----------------------------2~2x-----2~2x-----2~2x-----2~2x----|
B|-----------3~3x---------3~3x-------5~5x------3~3x-------3~3x-----3~3x-----3~3x-----3~3x----|
G|-----------4~4x---------4~4x-------5~5x------4~4x-------2~2x-----2~2x-----4~4x-----4~4x----|
D|-----------5~5x---------5~5x-------5~5x------5~5x------------------------------------------|
A|-------------------------------------------------------------------------------------------|
E|-------------------------------------------------------------------------------------------|

************************************

| x  Dead note
| h  Hammer-on
| p  Pull-off
| ~  Vibrato

************************************

            
            
Suggest correction
Creating personal tab
Creating personal tab
You can edit any tab online and save it as your Personal.

You can edit, replace or remove any tab part or add personal notes – all changes will be seen only by you.

Personal tabs can be accessed anytime from any device, even offline.
Learn more »
comments
print report bad tab
8 comments total. Showing first comments.
+2 reply
dannyz805 138 Jan 31, 2008 05:29 PM

good tab. rebelution kicks ass. thanks

0 reply
Pizza Truck 10 Oct 31, 2008 04:00 PM

I love this tab and song, great job. peace

0 reply
Holy. 50 Nov 04, 2008 04:58 PM

Nice job, it's not ska btw...

guest
Wanna post a correction for this tab? Suggest correction