Oops, an error
Loading. Please wait.

Feeling Alright tab

version 3
version 3

Whole song

10,910 views 21 this week
4 commentsread comments
1 2 3 4 5
x 6
add to favorites
×
Save as Personal and add changes to this tab that will be seen only by you. Learn more ›
×
You can save this tab as Personal to edit and correct it or add notes. All changes will be seen only by you. Learn more »
launch autoscroll
font size
0
reset
how to read this tab
guitar tuner
edit
Autoscroll
slow
fast
+/-
esc
set tempo
stop
Title: Feeling Alright
Artist: Rebelution
Album: Courage to Grow

Tabbed by Schlongdonger

The acoustic part is just how I play it, I think I'm missing a
few extra notes that are in the actual song.  Otherwise I think
it's pretty accurate.

  ____ Guitar One (Acoustic) ____

For the intro play all of this twice except what's noted.  It
comes back later, but just listen to the song to figure out the
variations.

e|-----------------0h2p0--------2-5-3---|
B|-------0-1--0---------3-------3-3-3---|
G|---0h2-----------------2--------------|
D|---------------0----------------------|
A|---------0---------------2------------|
E|-0----------3----------------------0--|
                   ^Guitar 2 comes in here on second time


                       first time                   second time
e|-------------------||---------------------------||-0h2p0-----|
B|---------0-1--0----||---------------------------||------3----|
G|-----0h2-----------||--2-0-0---------0h2p0-0----||-------2---|
D|-----------------0-||--0-0-4-0-0--4-------4-----||-----------|
A|-----------0-------||--------0-2----------------||-----------|
E|---0----------3----||------------------------0--||-----------|


  ____ Guitar Two (Electric) ____

Play progression [1] once, starting where noted above.  After
that just alternate between [2] and [3], which are basically the
same with a small variation at the end.

Guitar Two stops at the keyboard/bass part, then starts up again
with progression [3] after "sympathizin' and realizin'".

Sounds good to upstroke it, then mute it on the downstroke.


[1]
   D      D      Bm    Bm
e|-10-X---10-X---7-X---7-X--|
B|-10-X---10-X---7-X---7-X--|
G|-11-X---11-X---7-X---7-X--|
D|-12-X---12-X---9-X---9-X--|
A|--------------------------|
E|--------------------------|


[2]
   Em    Em    Am     G      D      D      D      Bm
e|-7-X---7-X---12-X---10-X---10-X---10-X---10-X---7-X--|
B|-8-X---8-X---13-X---12-X---10-X---10-X---10-X---7-X--|
G|-9-X---9-X---14-X---12-X---11-X---11-X---11-X---7-X--|
D|-9-X---9-X---14-X---12-X---12-X---12-X---12-X---9-X--|
A|-----------------------------------------------------|
E|-----------------------------------------------------|


[3]
   Em    Em    Am     G      D      D      Bm    Bm
e|-7-X---7-X---12-X---10-X---10-X---10-X---7-X---7-X--|
B|-8-X---8-X---13-X---12-X---10-X---10-X---7-X---7-X--|
G|-9-X---9-X---14-X---12-X---11-X---11-X---7-X---7-X--|
D|-9-X---9-X---14-X---12-X---12-X---12-X---9-X---9-X--|
A|----------------------------------------------------|
E|----------------------------------------------------|

Happy skankin'

            
            
Suggest correction
Creating personal tab
Creating personal tab
You can edit any tab online and save it as your Personal.

You can edit, replace or remove any tab part or add personal notes – all changes will be seen only by you.

Personal tabs can be accessed anytime from any device, even offline.
Learn more »
comments
print report bad tab
4 comments total. Showing first comments.
0 reply
Schlongdonger 153 Feb 10, 2010 12:03 PM

Oops, didn't mean to have an extra zero on the second intro part there.

Should just be this like the first one:
e|-------------------|
B|---------0-1--0----|
G|-----0h2-----------|
D|-----------------0-|
A|-----------0-------|
E|---0----------3----|

0 reply
Schlongdonger 153 Feb 10, 2010 12:09 PM

and I meant to fix this note here too:
|---------------------------|
|--2-0-0---------0h2p0-0----|
|--0-0-4-0-0--4-------4-----|
|--------0-2----------------|
|------------------------0--|
^ here

0 reply
Zatoman94 10 Feb 26, 2010 12:01 PM

yeah schlongdonger!

guest
You may want to rate the tab now too:
select rating
Wanna post a correction for this tab? Suggest correction