Oops, an error
Loading. Please wait.

Green To Black Tab

version 1
version 1

Intro

Whole song

19,661 views 9 this week
1 commentread comment
1 2 3 4 5
1 last vote to show rating
add to favorites
launch autoscroll
font size
0
reset
how to read this tab
guitar tuner
Autoscroll
slow
fast
+/-
esc
set tempo
stop
Help us to improve Ultimate-Guitar.com Take our survey!
×
Author
Difficulty
intermediate
-------11-10-8-8-10----------|
--8--8--------------11-10-8--|
-----------------------------|
-----------------------------|
-----------------------------|
-----------------------------|

---------------------8---------|
--8--8-8-11-8-8-8-11---10-6-8--|
-------------------------------|
-------------------------------|
-------------------------------|
-------------------------------|
Suggest correction
Give kudos to tab author, rate the tab!
1 2 3 4 5
comments
print report bad tab
1 comment total.
0 reply
linked 21 Aug 16, 2008 03:59 AM

i prefer not to move up to the 6 at the end of the second part...

---------------------8----------|
--8--8-8-11-8-8-8-11---10----8--|
--------------------------10----|
--------------------------------|
--------------------------------|
--------------------------------|

nice tab though.

guest
You may want to rate the tab now too:
select rating
Wanna post a correction for this tab? Suggest correction