Oops, an error
Loading. Please wait.

Other Side Bass Tab

version 1
version 1

Whole song

Interactive

10 views 1 this week
no commentswrite comment
1 2 3 4 5
2 more votes to show rating
add to favorites
launch autoscroll
font size
0
reset
guitar tuner
Autoscroll
slow
fast
+/-
esc
set tempo
stop
Help us to improve Ultimate-Guitar.com Take our survey!
×
Author
[Intro]
(0:22)
G|---------------------------------------------------------------------------|
D|-------------2-------------------------------------------------------------|
A|-3---3-2---2----------------------3---3-2----------------------------------|
E|------------------------------------------3-0------------------------------|

G|---------------------------------------------------------------------------|
D|-----------2---------------------------------------------------------------|
A|-3--3-2--2----------------------3--3-2-------------------------------------|
E|---------------------------------------3-0---------------------------------|


[Verse]

G|---------------------------------------------------------------------------|
D|-----------2---------------------------------------------------------------|
A|-3--3-2--2----------------------3--3-2---2---------------------------------|
E|---------------------------------------3-----------------------------------|

G|---------------------------------------------------------------------------|
D|-----------2---------------------------------------------------------------|
A|-3--3-2--2----------------------3--3-2-------------------------------------|
E|---------------------------------------3-0---------------------------------|

G|---------------------------------------------------------------------------|
D|-----------2---------------------------------------------------------------|
A|---------2-----------------------------------------------------------------|
E|--------------------3------------------------------------------------------|

G|---------------------------------------------------------------------------|
D|---------------------------------------------------------------------------|
A|--------------------------------3--3-2-------------------------------------|
E|---------------------------------------3-0---------------------------------|

G|---------------------------------------------------------------------------|
D|-----------2-------3---3---3-----------------------------------------------|
A|-3--3-2--2-----------3---3--------3--3-2-----------------------------------|
E|-----------------------------------------3-0-------------------------------|


[Chorus]

G|---------------------------------------------------------------------------|
D|-----------2---------------------------------------------------------------|
A|-3--3-2--2----------------------3--3-2---2---------------------------------|
E|---------------------------------------3-----------------------------------|

G|---------------------------------------------------------------------------|
D|-----------2---------------------------------------------------------------|
A|-3--3-2--2----------------------3--3-2-------------------------------------|
E|---------------------------------------3-0---------------------------------|

[Verse]

G|---------------------------------------------------------------------------|
D|-----------2---------------------------------------------------------------|
A|-3--3-2--2----------------------3--3-2---2---------------------------------|
E|---------------------------------------3-----------------------------------|

G|---------------------------------------------------------------------------|
D|-----------2---------------------------------------------------------------|
A|-3--3-2--2----------------------3--3-2-------------------------------------|
E|---------------------------------------3-0---------------------------------|

G|---------------------------------------------------------------------------|
D|-----------2---------------------------------------------------------------|
A|---------2-----------------------------------------------------------------|
E|--------------------3------------------------------------------------------|

G|---------------------------------------------------------------------------|
D|---------------------------------------------------------------------------|
A|--------------------------------3--3-2-------------------------------------|
E|---------------------------------------3-0---------------------------------|

G|---------------------------------------------------------------------------|
D|-----------2-------3---3---3-----------------------------------------------|
A|-3--3-2--2-----------3---3--------3--3-2-----------------------------------|
E|-----------------------------------------3-0-------------------------------|


[Chorus] x2

G|---------------------------------------------------------------------------|
D|-----------2---------------------------------------------------------------|
A|-3--3-2--2----------------------3--3-2---2---------------------------------|
E|---------------------------------------3-----------------------------------|

G|---------------------------------------------------------------------------|
D|-----------2---------------------------------------------------------------|
A|-3--3-2--2----------------------3--3-2-------------------------------------|
E|---------------------------------------3-0---------------------------------|


Order:
[Intro]
[Verse]
[Chorus]
[Verse]
[Chorus] x 2


Suggest correction
Give kudos to tab author, rate the tab!
1 2 3 4 5
comments
print report bad tab
guest
You may want to rate the tab now too:
select rating
Wanna post a correction for this tab? Suggest correction