Oops, an error
Loading. Please wait.

Roots Reggae Music bass

3,078 views 30 this week
2 commentsread comments
1 2 3 4 5
x 10
add to favorites
×
Save as Personal and add changes to this tab that will be seen only by you. Learn more ›
×
You can save this tab as Personal to edit and correct it or add notes. All changes will be seen only by you. Learn more »
launch autoscroll
font size
0
reset
guitar tuner
edit
Autoscroll
slow
fast
+/-
esc
set tempo
stop
Author
Difficulty
-----------------------------------------------------------------------------
                                          Artist - Rebelution
                                         *********************
                                       Song - Roots Reggae Music  
                                      ***************************
                                          Album - Count Me In  
                                         *********************
                                          Tabbed By - Ayreon77
                                         **********************
-----------------------------------------------------------------------------
Tuning = Standard


This Is The Whole Song,Played Over And Over.


RIFF 1
*******
G|---------------------------|-------------------|
D|---------5-5-5-3-----------|-------------------|
A|-3-3---3---------6-5-6-----|----1-1--1----1----|
E|-----------------------3-3-|3-3---------3---3--|



ENJOY............

            
            
Suggest correction
Creating personal tab
Creating personal tab
You can edit any tab online and save it as your Personal.

You can edit, replace or remove any tab part or add personal notes – all changes will be seen only by you.

Personal tabs can be accessed anytime from any device, even offline.
Learn more »
comments
print report bad tab
2 comments total.
0 reply
jimbassbass 10 Jun 19, 2016 06:41 AM

the second section should be 6's instead of 5's... so:
|--------------------|
|--------------------|
|--------------------|
|3-3-6-6--6--3-6-3---|

alternatively, if it's hard to stretch 3 to 6, you can do:

|-------------------|
|-------------------|
|----1-1--1----1----|
|3-3---------3---3--|

keep vibin' :)

0 reply
ayreon77 21,833 Jun 19, 2016 03:30 PM, edited at 07:54 pm

i,ll check it out and let u know

ok thx yea i agree that is a wrong note and the going to the 1 is easier, appreciate the correction

guest
You may want to rate the tab now too:
select rating
Wanna post a correction for this tab? Suggest correction