Oops, an error
Loading. Please wait.

Safe And Sound Tab

version 5
version 5
778 views 15 this week
no commentswrite comment
1 2 3 4 5
2 more votes to show rating
add to favorites
launch autoscroll
font size
0
reset
how to read this tab
guitar tuner
Autoscroll
slow
fast
+/-
esc
set tempo
stop
Author
Difficulty
intermediate
-------------------------------------------------------------------------------
                             Safe And Sound - Rebelution
-------------------------------------------------------------------------------
Tabbed by:

Tuning: Standard

This is just the basics to the song. Add or remove chords and such when needed.

INTRO BIT: (repeat when needed)
e|-11-11-14-12----12-11----------------------11-12----11---------------------|
B|-12-------------------14-12-11---11-12-14--------14----12------------------|
G|---------------------------------------------------------------------------|
D|---------------------------------------------------------------------------|
A|---------------------------------------------------------------------------|
E|---------------------------------------------------------------------------|

Intro/Chorus

e|--4------4------2------2------6------|
B|--4------5------2------4------7------|
G|--4------6------3------4------8------|
D|--6------6------4------4------8------|
A|--6------4------4------4------6------|
E|--4------4------2------2------6------|

Verse

e|--4---4---4---6---|
B|--4---4---5---7---|
G|--4---4---6---8---|
D|--6---6---6---8---|
A|--6---6---4---6---|
E|--4---4---4---6---|

Suggest correction
Give kudos to tab author, rate the tab!
1 2 3 4 5
comments
print report bad tab
guest
You may want to rate the tab now too:
select rating
Wanna post a correction for this tab? Suggest correction