Oops, an error
Loading. Please wait.

Sky Is The Limit Tab

23,610 views 36 this week
1 commentread comment
1 2 3 4 5
accurate
x 5
add to favorites
launch autoscroll
font size
0
reset
how to read this tab
guitar tuner
Tab Pro tools
  • play this tab
  • loop segment
  • change instrument
  • show fretboard
  • metronome
×
Best way to learn
"Sky Is The Limit"
Autoscroll
slow
fast
+/-
esc
set tempo
stop
Contributor
Difficulty
intermediate
-----------------------------------------------------------------
Sky is the Limit - Rebelution
-----------------------------------------------------------------
Tabbed by: Brian Zucker
Email: bnzucker@comcast.net
Tuning: Standard
Intro
Cm                                           Gm
e|3-3-33--3--3----33-3-33--3--3----3-3-33--3--3----33-3-33--3----|
B|4-4-44--4--4----44-4-44--4--4----3-3-33--3--3----33-3-33--3----|
G|5-5-55--5--5----55-5-55--5--5----3-3-33--3--3----33-3-33--3----|
D|5-5-55--5--5----55-5-55--5--5----5-5-55--5--5----55-5-55--5----|
A|3-3-33--3--3----33-3-33--3--3----5-5-55--5--5----55-5-55--5----|
E|x-x-xx--x--x----xx-x-xx--x--x----3-3-33--3--3----33-3-33--3----|
(horns)chorus
e|---------------------------------------------------------------|
B|---------------------------------------------------------------|
G|---5----7--8----10--12---8-10-8-10-8-7----7p5-3----3p2-0-------|
D|---------------------------------------------------------------|
A|---------------------------------------------------------------|
E|---------------------------------------------------------------|
guitar riff(chorus)
e|---------------------------------------------------------------|
B|---------------------------------------------------------------|
G|-5-7-8-5-7-8-5-7-8-5-7-8-5-7-8---5-7-8-5-7-8-5-7-8-5-7-8-5-7-8-|
D|---------------------------------------------------------------|
A|---------------------------------------------------------------|
E|---------------------------------------------------------------|

e|---------------------------------------------------------------|
B|---------------------------------------------------------------|
G|---------------------------------------------------------------|
D|-8-7-5-8-7-5-8-7-5-8-7-5-8-7-5---8-7-5-8-7-5-8-7-5-8-7-5-8-7-5-|
A|---------------------------------------------------------------|
E|---------------------------------------------------------------|
guitar chords (chorus+verse)
   Cm        Gm
e|--3---------3--------------------------------------------------|
B|--4---------3--------------------------------------------------|
G|--5-(x8)----3-(x8)---------------------------------------------|
D|--5---------5--------------------------------------------------|
A|--3---------5--------------------------------------------------|
E|--x---------3--------------------------------------------------|
horns(verse)
e|---------------------------------------------------------------|
B|--------------------------------8---11-10-8------8---11-10-8---|
G|--5---8-7-5------5---8-7-5-------------------------------------|
D|---------------------------------------------------------------|
A|---------------------------------------------------------------|
E|---------------------------------------------------------------|
guitar chords (bridge)
    F         Gm
e|--1----------3-------------------------------------------------|
B|--1----------3-------------------------------------------------|
G|--2----------3-------------------------------------------------|
D|--3-(x4)-----5-(x4)--------------------------------------------|
A|--3----------5-------------------------------------------------|
E|--1----------3-------------------------------------------------|
horns (bridge)
e|---------------------------------------------------------------|
B|-------------------------------------------10----13----11------|
G|--------------------------------------10-12--------------------|
D|8-7-5-7-3---3-5-7-8-(x3)--8-7-5-7-3----------------------------|
A|---------------------------------------------------------------|
E|---------------------------------------------------------------|

thats about it... great song/album by Rebelution once again!
comments
print report bad tab
1 comment total.
0 reply
scottweir wrote on August 10 2014, 07:36 pm

Thanks for adding this, great song and a good tab. I appreciate including the horns. I think those are more fun to play on this song anyway, when playing solo.

I had one small correction. Unless Im hearing it wrong, there should be an extra note for the horns in the bridge:

horns (bridge)
e|---------------------------------------------------------------|
B|--------------------------------------------10----13----11-----|
G|---------------------------------------10-12-------------------|
D|8-7-5-7-3---3-5-7-5-8-(x3)--8-7-5-7-3--------------------------|
A|---------------------------------------------------------------|
E|---------------------------------------------------------------|

I want to post or [tab]
guest
You may want to rate the tab now too:
select rating
Please do not post tabs as comments. Select "correction" instead!