Oops, an error
Loading. Please wait.

Caso De Locura tab

by Recarga
32 views 1 this week
no commentswrite comment
1 2 3 4 5
3 more votes to show rating
add to favorites
×
Save as Personal and add changes to this tab that will be seen only by you. Learn more ›
×
You can save this tab as Personal to edit and correct it or add notes. All changes will be seen only by you. Learn more »
launch autoscroll
font size
0
reset
how to read this tab
guitar tuner
edit
Autoscroll
slow
fast
+/-
esc
set tempo
stop

|-----------------------------------------|
|-----------------------------------------|
|-----------------------------------------|
|-----------------------------------------| [x2 muteado]
|-----------------2-3---------------------|
|-2222-322-522-32-----2222-322-522-32-0-0-|

|-----------------------------------------|
|-----------------------------------------|
|-----------------------------------------|
|-----------------------------------------| [x2 sin mute]
|-----------------2-3---------------------|
|-2222-322-522-32-----2222-322-522-32-0-0-|

F#5       D5         A5     E5
A veces creen que estoy muerto
F#5       D5         A5     E5
que tus sueños son tan solo sueños
F#5       D5         A5     E5              D5
y se bien que no es verdad en buen dia lo veras
     E5
no importa donde estas

F#5       D5         A5     E5
tal vez no sientas lo que yo siento
F#5       D5         A5     E5
no por eso vivo en un infierno
F#5       D5         A5     E5              D5
y se bien que no es verdad en buen dia lo veras
     E5
no importa donde estas

A5   D5  F#5              Em
Dime que no piensas en el amor
A5   D5  F#5              Em
dime que no buscas algo mejor
A5   D5  F#5              Em         D5
date cuenta que el mundo esta loco y Yo no
E5
todo por ser como soy

|-----------------------------------------|
|-----------------------------------------|
|-----------------------------------------|
|-----------------------------------------| [x2 muteado]
|-----------------2-3---------------------|
|-2222-322-522-32-----2222-322-522-32-0-0-|

|-----------------------------------------|
|-----------------------------------------|
|-----------------------------------------|
|-----------------------------------------| [x2 sin mute]
|-----------------2-3---------------------|
|-2222-322-522-32-----2222-322-522-32-0-0-|


F#5 Em A5
F#5 Em F#5
F#5 Em A5
C5 A5 F#5

F#5 Em A5
F#5 Em F#5
F#5 Em A5
C5 A5 F#5

A5   D5  F#5              Em
Dime que no piensas en el amor
A5   D5  F#5              Em
dime que no buscas algo mejor
A5   D5  F#5              Em         D5
date cuenta que el mundo esta loco y Yo no
E5
todo por ser como soy
F#5 A5 D5 E5
todo por ser como soy
F#5 A5 D5 E5
todo por ser como soy

________________________________________________________________________

F5*

|-----|
|-----|
|-10--|
|-10--|
|--8--|
|-----|

______________________________________________________________________

Transcripción por Angelo (

Hablamos!
Suggest correction
Creating personal tab
Creating personal tab
You can edit any tab online and save it as your Personal.

You can edit, replace or remove any tab part or add personal notes – all changes will be seen only by you.

Personal tabs can be accessed anytime from any device, even offline.
Learn more »
Give kudos to tab author, rate the tab!
1 2 3 4 5
comments
print report bad tab
guest
Wanna post a correction for this tab? Suggest correction