Oops, an error
Loading. Please wait.

Las Buenas Epocas tab

by Recarga
32 views 1 this week
no commentswrite comment
1 2 3 4 5
3 more votes to show rating
add to favorites
×
Save as Personal and add changes to this tab that will be seen only by you. Learn more ›
×
You can save this tab as Personal to edit and correct it or add notes. All changes will be seen only by you. Learn more »
launch autoscroll
font size
0
reset
how to read this tab
guitar tuner
edit
Autoscroll
slow
fast
+/-
esc
set tempo
stop
ENTRA ASI:
Acompañado por las quintas C5-A#5-G#5-A#5
1------------------------------------------------|
2------------------------------------------------|
3------------------------------------------------|
4------------------------------------------------|
5-3-3-3---6-6-6---5-5------------5-5-5---3-3-----|
6-------------------------6-6-6------------------| ----] x 4
LUEGO YA CON EL COMPAS
También acompañado con las mismas quintas
1------------------------------------------------|
2------------------------------------------------|
3------------------------------------------------|
4------------------------------------------------|
5-3-3--6-6--5-----------5-5---3------------------|
6--------------------6-6-------------------------| ----] x 4

C5                     A#5
Creo ke hoy yo pude entender
                            G#5
Ke no hay nada ke importe entender
                            A#5               F5*-D#5-D5-C5
Ke me importa una mierda lo ke ellos digan de mi vida

(USAR LOS MISMOS ACORDES DE LA PRIMERA ESTROFA)
Y sé! Ke pueden saber ke no es verdad
Pero se ke igual lo dirán
Tal vez así su vida es mas interesante de lo ke en verdad es

A#5/C5 A#5-D#5
       Hey Ho
A#5/C5    F5*-D#5-D5-C5
          Cuando la vida pierde razón
A#5/C5 A#5-D#5
       Hey Ho
A#5/C5    F5*-D#5-D5-C5
          Podras vivir de tu corazón

(USAR LOS MISMOS ACORDES DE LA PRIMERA ESTROFA)
Soy distinto y no kiero ser
Parte de lo ke tu suelas ver
De esta puta moda ke nos enferma de hipocresía
Creo ke voy a vomitar
Necesito realmente escapar
Busco algo nuevo
Una recarga a esta rutina

Hey Ho
Cuando la vida pierde razón
Hey Ho
Podras vivir de tu corazón     [X2]


C5     A#5       G#5       A#5              C5
  Trato de recuperar lo ke el tiempo se llevó
                   A#5           G#5          A#5
  Me enferma el presente y la mentalidad de sufrir
                        C5 - C5 A#5 - A#5 G#5 - G#5 A#5
  Y seguir sufriendo mas?

AQUÍ EL BAJO SIGUE HACIENDO LAS QUINTAS (C5-A#5-G#5-A#5)
Cansado de sobrellevar la mierda ke me rodea --] x4
(acompañado por el intro)


DESDE AKI ACOMPAÑANDO POR LAS 8vas.
1------------------------------------|
2------------------------------------|
3---8----10----12----15--------------|
4---x-----x-----x-----x--------------|
5---6(*)--8(*)-10(*)-13(*)-----------|
6------------------------------------|
(*) Significa hacer las veces ke sea conveniente

C5                      A#5
 Cansado de sobrellevar la mierda ke me rodea
G#5                     A#5
 Cansado de sobrellevar la mierda ke me rodea

C5                      A#5
De esta puta moda de peinados polos apretados
G#5                   A#5
De! negro con rosado y un color ke has inventado
C5                  A#5
No! Kiero saber mas kedate en donde estas
G#5                        A#5                 C5
Muy lejos de mi, por ke la vida vale algo para mi


¡¡ESPERO KE LES SIRVA!!...SALUDOS PARA LA BANDA
"SERO GRADOS"- HUANCAVELICA
(BRANS,ZAMUEL,BRANDON,JOEL))

CUALQUIER DUDA O CRITICA A joel_janb3@

            
            
Suggest correction
Creating personal tab
Creating personal tab
You can edit any tab online and save it as your Personal.

You can edit, replace or remove any tab part or add personal notes – all changes will be seen only by you.

Personal tabs can be accessed anytime from any device, even offline.
Learn more »
Give kudos to tab author, rate the tab!
1 2 3 4 5
comments
print report bad tab
guest
Wanna post a correction for this tab? Suggest correction