Oops, an error
Loading. Please wait.

Historia Nacional tab

19 views 1 this week
no commentswrite comment
1 2 3 4 5
3 more votes to show rating
add to favorites
×
Save as Personal and add changes to this tab that will be seen only by you. Learn more ›
×
You can save this tab as Personal to edit and correct it or add notes. All changes will be seen only by you. Learn more »
launch autoscroll
font size
0
reset
how to read this tab
guitar tuner
edit
Autoscroll
slow
fast
+/-
esc
set tempo
stop
Intro:

E|--------------------------------------------|
B|--------------------------------------------|
G|----11---11----12----12---9---9---11---11---|
D|--9----9-----10----10---7---7---9----9------|
A|--------------------------------------------|
E|--------------------------------------------|


B - C - A - B - C
  B        C        A     B  C
La prensa habla de tantos muertos
  B        C                    A        B  C
Esas no son las sifras fueron mucho mas que esos
  B        C            A       B  C
En el cementerio ya no hay mas huecos
  B        C        A           B  C
En unas fosas los tiraron como perros
  B        C        A     B  C
Toque de queda, No hay garantia
  B        C          A             B  C
Saca su revolver y asesina a sangre fria
  B        C        A       B  C
La ignorancia de un peorro uniformado
  B        C           A        B  C
Apunto al pueblo mato es un Desgraciado


Continua con el Intro

Asesino te lavaron el cerebro!!!


Quien a olvidado nuestros muertos?


Aqui el Ritmo es super rapido
Coro
B - C - G X2

B           C
Quien a olvidado!
G
Los que murieron sin saber donde y cuando
B           C                             [----X2
Quien a olvidado!
G
Las caravanas y desfiles de entierros


  B           C           A             B  C
El hombre y la corrupcion, se han enfrentado!
  B            C         A         B  C
mira bien quien a ganado, maldito estado!
  B        C         A          B  C
pasaran los años y quedaran los restos
  B        C            A           B  C
madres que dicen a mi hijo no lo encuentro
  B        C        A     B  C
Toque de queda, No hay garantia
  B        C          A             B  C
Saca su revolver y asesina a sangre fria
  B        C        A       B  C
La ignorancia de un peorro uniformado
  B        C           A        B  C
Apunto al pueblo mato es un Desgraciado


Asesinado por reclamar sus derechos!!!

Coro X 2

Aqui el Ritmo es super rapido
Coro
B - C - G X2

B           C
Quien a olvidado!
G
Los que murieron sin saber donde y cuando
B           C                             [----X2
Quien a olvidado!
G
Las caravanas y desfiles de entierros


Punteo Facil

E|-------------7-8-7--------------------7-8-10-8-7-----|
B|-7-7-5-7-8-8------8-7-----7-7-5-7-8-8----------------|
G|-----------------------------------------------------|
D|-----------------------------------------------------| [--- X2
A|-----------------------------------------------------|
E|-----------------------------------------------------|

y luego termina con

E|--------------------------------------------|
B|--------------------------------------------|
G|----11---11----12----12---9---9---11---11---|
D|--9----9-----10----10---7---7---9----9------|
A|--------------------------------------------|
E|--------------------------------------------|

Punk Rock, Venezuela Tujillo!

            
            
Suggest correction
Creating personal tab
Creating personal tab
You can edit any tab online and save it as your Personal.

You can edit, replace or remove any tab part or add personal notes – all changes will be seen only by you.

Personal tabs can be accessed anytime from any device, even offline.
Learn more »
Give kudos to tab author, rate the tab!
1 2 3 4 5
comments
print report bad tab
guest
Wanna post a correction for this tab? Suggest correction