Oops, an error
Loading. Please wait.

Yo Gobierno chords

12 views 1 this week
no commentswrite comment
1 2 3 4 5
3 more votes to show rating
add to favorites
×
Save as Personal and add changes to this tab that will be seen only by you. Learn more ›
×
You can save this tab as Personal to edit and correct it or add notes. All changes will be seen only by you. Learn more »
launch autoscroll
font size
0
reset
transpose
0
reset
display chords
guitar tuner
edit
Autoscroll
slow
fast
+/-
esc
set tempo
stop
Strumming
There is no strumming pattern for this song yet. and get +5 IQ
En esat canción el bajo hace un intro            **: bastantes veces+
                                                  *: pocas veces


G--------------------------------------------------------------------------
D--------------------------------------------------------------------------
A--3-3--2-2-------------3-3--2-2---000000*--3333333--55555555--------------
E------------333333*---------------------------------------------333333333-

   C   B   G    A    C   D

E---------------------------------------------------
B---------------------------------------------------
G--5---3-------------5---7--------------------------
D--5---3---5----7----5---7--------------------------
A--3---2---5----7----3---5--------------------------
E----------3----5-----------------------------------


 G       C  B      A
 Callate ya no hables

       C                D             G
No quiero escuchar tus verdades tus mentiras

 C  B    G    C    B      A
Siempre yo soy el que angaña

         C             D          G
Pero te gusta estar siempre a mi lado


En los demas versos toca la cancion


No t obligo a nada
siempre tu me eliges
y despues terminas quejandote me exijes
te conformas con lo poco que doy
comida dinero juegos veicios tu licor


E--7-8-7-8-8h10-8--7-8h10-8--7-8-7-8---------8-7-----8-888-10h12-10-8--------
B-------------------------------------10-10------10*-------------------10--8-
G----------------------------------------------------------------------------   (BISS)
D----------------------------------------------------------------------------
A----------------------------------------------------------------------------
E----------------------------------------------------------------------------


No t obligo a nada
siempre tu me eliges
y despues terminas quejandote me exijes
te conformas con lo poco que doy
comida dinero juegos veicios tu licor


hay amor en ti en mi
es dificil cepararnos
y mas cuando ahy interes yo nunca t dejare


Este veres mas lento que los demas


No protestes amo mio
que yo a qui soy el que mando
soy el gobierno y tu mi esclavo


Lo primero que les digo, escuchen la cancion primero para que puedan tocarla.

Bueno gracias esta es mi primera tablatura que hago

para que me quieran escribir a mi correo este es: cesar_15data@

digan lo que quieran

            
            
Suggest correction
Creating personal tab
Creating personal tab
You can edit any tab online and save it as your Personal.

You can edit, replace or remove any tab part or add personal notes – all changes will be seen only by you.

Personal tabs can be accessed anytime from any device, even offline.
Learn more »
Give kudos to tab author, rate the tab!
1 2 3 4 5
comments
print report bad tab
guest
Wanna post a correction for this tab? Suggest correction