Oops, an error
Loading. Please wait.

Air Force Tab

768 views 1 this week
no commentswrite comment
1 2 3 4 5
please rate
add to favorites
launch autoscroll
font size
0
reset
how to read this tab
guitar tuner
Autoscroll
slow
fast
+/-
esc
set tempo
stop
Help us to improve Ultimate-Guitar.com Take our survey!
×
Author
Tabbers playing skills
beginner +
e|-0-0-0-5-0-0-0-7-0-0-0-8-0-0-0-7-0-0-0-5-0-0-0-4-0-0-0-5---5-5-5---------|
B|-------------------------------------------------------------------------|
G|-------------------------------------------------------------------------|
D|-------------------------------------------------------------------------|
A|-------------------------------------------------------------------------|
E|-------------------------------------------------------------------------|

e|-------5------7--------8-------7-------5-------4-------5--|
B|-------0-------0-------0-------0-------0-------0-------0--|
G|----------------------------------------------------------|
D|----------------------------------------------------------|
A|----------------------------------------------------------|
E|-0-0-0--0-0-0----0-0-0---0-0-0---0-0-0---0-0-0---0-0-0----|
Suggest correction
Give kudos to tab author, rate the tab!
1 2 3 4 5
comments
print report bad tab
guest
You may want to rate the tab now too:
select rating
Please do not post tabs as comments. Select "correction" instead!