Oops, an error
Loading. Please wait.

Break My Heart Tonight bass

887 views 1 this week
no commentswrite comment
1 2 3 4 5
3 more votes to show rating
add to favorites
×
Save as Personal and add changes to this tab that will be seen only by you. Learn more ›
×
You can save this tab as Personal to edit and correct it or add notes. All changes will be seen only by you. Learn more »
launch autoscroll
font size
0
reset
guitar tuner
edit
Autoscroll
slow
fast
+/-
esc
set tempo
stop
Author
Difficulty
Artist: Reckless Kelly
Song: Break My Heart Tonight
Tuning: Standard (EADG)

Note - This isn't so much the bass tab, as it is just following the guitar chords. The 
bass follows more of the percussion, but, this is a lot more fun to play...

Intro:(0:31)
G|--------------------------------------------------------------|
D|--------------------------------------------------------------|
A|----------------------------------------------2~--------------|
E|-3~-----------------------------------------------------------|
  Well I can write another love song, yeah, but first you got...

G|-----------------------------------------------------------------|
D|-----------------------------------------------------------------|
A|-3~-------------------------------------------5~-----------------|
 E|----------------------------------------------------------------|
  I could write another fight song, yeah, but there's got to be...

Chorus:
G|--------------------------------------------------------------|
D|--------------------------------------------------------------|
A|3-3-3-3-3-3-3-5-5-5-5-5-5-5-5----------------2-2-2-2-2-2------|
E|-------------------------------3-3-3-3-2-1--------------------|
  Misery love's company, but it damn sure ain't lookin' for me

G|---------------------------------------------------------------------|
D|---------------------------------------------------------------------|
A|------3-3-3-3-3-----5-5-5-5-5-----------------3-3-3-3---5-5----------|
E|------------------------------------------------------------3-3-3-3--|
   I'll be alright, I just gotta find someone to break my heart tonight


Verse: x2

G|--------------------------------------------------------------|
D|--------------------------------------------------------------|
A|------------------------------------2-2-2-2-2-2-2-2-2-2-2-2-2-|
E|-33-3-3-3-3-3-3-3-3-3-3-3-3-3-3-3-----------------------------|
  Going out walkin' on Avenue B and I ain't comin' back until dawn


G|--------------------------------------------------------------|
D|--------------------------------------------------------------|
A|-3-3-3-3-3-3-3-3-3-3-3-33-3-3-3-33-3-3----5-5-5-5-5-5-5-5-5-5-|
E|--------------------------------------------------------------|
  And find some stranger in a Greenich bar to shower my affection upon..


Chorus

Bridge:

G|--------------------------------------------------------------|
D|--------------------------------------------------------------|
A|-7-7-7-7-7-7-7-7-7-7-7--------2-2-2-2-2-2-2-2-2---------------|
E|--------------------------------------------------------------|
   Well all these A&R guys keep knockin' on my door

G|--------------------------------------------------------------------------|
D|--------------------------------------------------------------------------|
A|-7-7-7-7-7-7-7-7-7-7-7-7-7-7-7-7-7-7-7-7-7-7-7-5-5-5--3-3-3-3--2-2-2--5-5-|
E|--------------------------------------------------------------------------|
 I guess the last batch...good enough cause they keep on wanting more-an-more


Chorus: x2

Ending: Verse (play with it some)

~Keatre
Suggest correction
Creating personal tab
Creating personal tab
You can edit any tab online and save it as your Personal.

You can edit, replace or remove any tab part or add personal notes – all changes will be seen only by you.

Personal tabs can be accessed anytime from any device, even offline.
Learn more »
Give kudos to tab author, rate the tab!
1 2 3 4 5
comments
print report bad tab
guest
You may want to rate the tab now too:
select rating
Wanna post a correction for this tab? Suggest correction