Oops, an error
Loading. Please wait.

Thirteen bass

by Recon
2,338 views 3 this week
5 commentsread comments
1 2 3 4 5
x 3
add to favorites
×
Save as Personal and add changes to this tab that will be seen only by you. Learn more ›
×
You can save this tab as Personal to edit and correct it or add notes. All changes will be seen only by you. Learn more »
launch autoscroll
font size
0
reset
guitar tuner
edit
Autoscroll
slow
fast
+/-
esc
set tempo
stop
yeah heres another song from me to u all. ojipwnsyou this is for u sry it took so long 
do. anyway here it is enjoy, peace. please rate and coment

intro x2 (the rythm might not be exactly right but u have to listen to the song for that 
sorry)
G[-------------------------------------------------------------------------]
d[-------------------------------------------------------------------------]
A[-------------------------------------------------------------------------]
D[-2---2222222--222222222222222-2222-2222222--2222222222222----------------]

G[-------------------------------------------------------------------------]
d[-------------------------------------------------------------------------]
A[-------------------------------------------------------------------------]
D[--0000---0000000--00000000000000-0000-00000000---0000000000000-----------]

end on D[2~~~~~~~~~~~]after the second time through

bridge
G[-------------------------------------------------------------------------]
d[-------------------------------------------------------------------------]
A[-------------------------------------------------------------------------]
D[---4-2-1-2~~~~~~~~~~~--------4-2-1---------------------------------------]

verse x4
G[-------------------------------------------------------------------------]
d[-------------------------------------------------------------------------]
A[--\333\333-\555\555-\333\333-\555\555------------------------------------]
D[---------------------------------------4-2-1-----------------------------]
bridge
G[-------------------------------------------------------------------------]
d[-------------------------------------------------------------------------]
A[-------------------------------------------------------------------------]
D[---4-2-1--4-2-1--4-2-1--4-2-1-0------------------------------------------]

G[-------------------------------------------------------------------------]
d[-------------------------------------------------------------------------]
A[-------------------------------------------------------------------------]
D[-2-00000000000000000202-0000000002-00-1-00-------------------------------]x4

G[-------------------------------------------------------------------------]
d[-------------------------------------------------------------------------]
A[-------------------------------------------------------------------------]
D[-00-00-00-00-00-00--0000000000---00-00-00-00-00-00-000000000-------------]x2

G[-------------------------------------------------------------------------]
d[-------------------------------------------------------------------------]
A[-------------------------------------------------------------------------]
D[-0000000-0000000-0000000-000000-0000000-2-1-0-1-2-1-0--------------------]
x4

G[-------------------------------------------------------------------------]
d[-------------------------------------------------------------------------]
A[-------------------------------------------------------------------------]
D[--2-00000----------------------------------------------------------------]
x4
G[-------------------------------------------------------------------------]
d[-------------------------------------------------------------------------]
A[-------------------------------------------------------------------------]
D[--2-0-0-0----------------------------------------------------------------]x4
G[-------------------------------------------------------------------------]
d[-------------------------------------------------------------------------]
A[-------------------------------------------------------------------------]
D[-2~~~~~~~~~~~~~~~~~~~~~~~~~~~~~~~~~~~------------------------------------]

G[-------------------------------------------------------------------------]
d[-------------------------------------------------------------------------]
A[-------------------------------------------------------------------------]
D[-2-000-----2-000-1-111---------------------------------------------------]
x8

G[-------------------------------------------------------------------------]
d[-------------------------------------------------------------------------]
A[-------------------------------------------------------------------------]
D[--00---------------------------------------------------------------------]

            
            
Suggest correction
Creating personal tab
Creating personal tab
You can edit any tab online and save it as your Personal.

You can edit, replace or remove any tab part or add personal notes – all changes will be seen only by you.

Personal tabs can be accessed anytime from any device, even offline.
Learn more »
Give kudos to tab author, rate the tab!
1 2 3 4 5
comments
print report bad tab
5 comments total. Showing first comments.
+2 reply
podalop 10 Nov 07, 2007 05:28 PM

this is way wrong.. not only are the tabs wrong, but its not played anywhere near dropped D

ive personally spoken with the band
it used to be played in dropped A#
but the new recording is played on dropped A
learn your shit before you tab it.

0 reply
cwaydt 10 Nov 20, 2007 03:32 PM

Anyone know how the first riff of the song?

B
------------------|---------------|
F#------------------|---------------| The rhythm is way off and I
D
------------------|---------------| didn't add the Pinch Harm. but
A --0-0--0-0--0-0-0-|--0-0-0--0-0-0-| are the
chords pretty close?
E --1-1--1-1--1-1-1-|--0-0-0--0-0-0-|
A --1-1--1-1--1-1-1-|--0-0-0--0-0-0-|

0 reply
cwaydt 10 Nov 20, 2007 03:36 PM

Sorry, It messed up

A --0-0--0-0--0-0-0-|--0-0-0--0-0-0-|
E --1-1--1-1--1-1-1-|--0-0-0--0-0-0-|
A
--1-1--1-1--1-1-1-|--0-0-0--0-0-0-|

guest
You may want to rate the tab now too:
select rating
Wanna post a correction for this tab? Suggest correction