Oops, an error
Loading. Please wait.

Already Over Tab

version 3
version 3

Whole song

Interactive

by RED
1,695 views 1 this week
no commentswrite comment
1 2 3 4 5
please rate
add to favorites
launch autoscroll
font size
0
reset
how to read this tab
guitar tuner
Autoscroll
slow
fast
+/-
esc
set tempo
stop
Help us to improve Ultimate-Guitar.com Take our survey!
×
Contributor
Difficulty
Tuning
novice
D G C F A D
Already Over By RED from the album End of Silence
Tuning: Down half step drop D (Db,Ab,Db,Gb,Bb,Eb)
Tabbed by Athen Jensen

Slide Down: //
Slide up: /


You never go
Your always here (suffocating me)
Under my skin
I cannot run away
Fading slowly I’d give it all to


   You! Letting go of me! Reaching as I fall! I know it’s already over, now!
Eb|----------------------------------------------------------------|
Bb|----------------------------------------------------------------|
Gb|----------------------------------------------------------------|
Db|-9//4—-4—4-4-4-4-4--7—-7—-7-7-7-7-7--2—-2--2-2-2-2-2/9--9--12-14|
Ab|-9//4—-4—4-4-4-4-4--7—-7—-7-7-7-7-7--2—-2--2-2-2-2-2/9--9--12-14|
Db|-9//4—-4—4-4-4-4-4--7—-7—-7-7-7-7-7--2—-2--2-2-2-2-2/9--9--12-14|

    Nothing left to lose!           Loving you again!      I know it's already over, 
already over now
Eb|----------------------------------------------------------------|
Bb|----------------------------------------------------------------|
Gb|----------------------------------------------------------------|
Db|-4—-4—4-4-4-4-4--7—-7—-7-7-7-7-7--2—-2--2-2-2-2-2/9--9--12-14-4-|
Ab|-4—-4—4-4-4-4-4--7—-7—-7-7-7-7-7--2—-2--2-2-2-2-2/9--9--12-14-4-|
Db|-4—-4—4-4-4-4-4--7—-7—-7-7-7-7-7--2—-2--2-2-2-2-2/9--9--12-14-4-|
(Let the last “4”ring for 2 seconds then palm mute)


My best defense, running from you (suffering everything)
I can't resist, take all you want from me
Breaking slowly

I'd give it all to

   You! Letting go of me! Reaching as I fall! I know it’s already over, now!
Eb|----------------------------------------------------------------|
Bb|----------------------------------------------------------------|
Gb|----------------------------------------------------------------|
Db|-9//4—-4—4-4-4-4-4--7—-7—-7-7-7-7-7--2—-2--2-2-2-2-2/9--9--12-14|
Ab|-9//4—-4—4-4-4-4-4--7—-7—-7-7-7-7-7--2—-2--2-2-2-2-2/9--9--12-14|
Db|-9//4—-4—4-4-4-4-4--7—-7—-7-7-7-7-7--2—-2--2-2-2-2-2/9--9--12-14|

     Nothing left to lose!           Loving you again!      I know it's already over, 
already over now
Eb|----------------------------------------------------------------------|
Bb|----------------------------------------------------------------------|
Gb|----------------------------------------------------------------------|
Db|-4—-4—4-4-4-4-4--7—-7—-7-7-7-7-7--2—-2--2-2-2-2-2/9--9--12-14--9-12-14|
Ab|-4—-4—4-4-4-4-4--7—-7—-7-7-7-7-7--2—-2--2-2-2-2-2/9--9--12-14--9-12-14|
Db|-4—-4—4-4-4-4-4--7—-7—-7-7-7-7-7--2—-2--2-2-2-2-2/9--9--12-14--9-12-14|

I'm reaching for! It's already over now You're all I'm reaching for It's already over now
Eb|-----------------------------|
Bb|-----------------------------|
Gb|-----------------------------|
Db|-0--2--4--2--0--2--4--2--0--2|
Ab|-0--2--4--2--0--2--4--2--0--2|
Db|-0--2--4--2--0--2--4--2--0--2|

Clean:
                                             I'd give it all to you I offer up my soul. 
It's already over, already over now!
Eb|-------------------------|
Bb|-------------------------|
Gb|-------------------------|
Db|-4-4--7-7--2-2--9-9------|X2
Ab|-4-4--7-7--2-2--9-9------|
Db|-4-4--7-7--2-2--9-9------|

Give it all to you! Letting go of me! Reaching as I fall! I know it's already over now! 
Nothing left to lose! Loving you again!
Eb|-------------------------------------------------------------|
Bb|-------------------------------------------------------------|
Gb|-------------------------------------------------------------|
Db|-4—-4—4-4-4-4-4--7—-7—-7-7-7-7-7--2—-2--2-2-2-2-2/9--9--12-14|X4
Ab|-4—-4—4-4-4-4-4--7—-7—-7-7-7-7-7--2—-2--2-2-2-2-2/9--9--12-14|
Db|-4—-4—4-4-4-4-4--7—-7—-7-7-7-7-7--2—-2--2-2-2-2-2/9--9--12-14|




    I know it’s already over now! It’s already over now!  I know it's already over, 
already over
Eb|----------------------------------------------------------------------|
Bb|----------------------------------------------------------------------|
Gb|----------------------------------------------------------------------|
Db|-4—-4—4-4-4-4-4--7—-7—-7-7-7-7-7--2—-2--2-2-2-2-2/9--9--12-14--9-12-14|
Ab|-4—-4—4-4-4-4-4--7—-7—-7-7-7-7-7--2—-2--2-2-2-2-2/9--9--12-14--9-12-14|
Db|-4—-4—4-4-4-4-4--7—-7—-7-7-7-7-7--2—-2--2-2-2-2-2/9--9--12-14--9-12-14|
comments
We did not receive enough feedback on this tab! Please rate:
print report bad tab
1 2 3 4 5
I want to post or [tab]
guest
You may want to rate the tab now too:
select rating
Please do not post tabs as comments. Select "correction" instead!