Oops, an error
Loading. Please wait.

Already Over Tab

version 4
version 4

Whole song

Interactive

by RED
1,366 views 3 this week
6 commentsread comments
1 2 3 4 5
x 5
add to favorites
launch autoscroll
font size
0
reset
how to read this tab
guitar tuner
×
Best way to learn
"Already Over"
Autoscroll
slow
fast
+/-
esc
set tempo
stop
Author
Difficulty
Tuning
novice
C# G# C# F# A# D#
Band: Red
Song: Already Over
Album: End Of Silence
Really easy song, honestly.
Tuning: C# or Db


/= Slide up or down, you should be able to figure out which way you are sliding.

Eb|----------------------------------------------------------------|
Bb|----------------------------------------------------------------|
Gb|----------------------------------------------------------------|
Db|9/4-----4-----4----7-----7-----7----2-----2-----2----9---0----2-|
Ab|9/4-----4-----4----7-----7-----7----2-----2-----2----9---0----2-|
Db|9/4-----4-----4----7-----7-----7----2-----2-----2----9---0----2-|

Eb|----------------------------------------------------------------|
Bb|----------------------------------------------------------------|
Gb|----------------------------------------------------------------|
Db|4-----4-----4----7-----7-----7----2-----2-----2----9---0----2---|
Ab|4-----4-----4----7-----7-----7----2-----2-----2----9---0----2---|
Db|4-----4-----4----7-----7-----7----2-----2-----2----9---0----2---|

Next you repeat the chorus, except you just add something to the end of the chorus:

Eb|---------------|
Bb|---------------|
Gb|---------------|
Db|-9---0---2-----|
Ab|-9---0---2-----|
Db|-9---0---2-----|

Yeah you just play the ending again basically. You'll get it.

Next part:

Eb|--------------------------------------|
Bb|--------------------------------------|
Gb|--------------------------------------|
Db|-0---2---4---2---0---2---4---7---0---2|
Ab|-0---2---4---2---0---2---4---7---0---2|
Db|-0---2---4---2---0---2---4---7---0---2|

Note that there will be a 3 second pause in  between each chord, in which time you will 
hold down the note, don't let go.

And then you play the chorus over 4 times, which will end the song, but again you will 
play that double ending I noted earlier:

Eb|---------------|
Bb|---------------|
Gb|---------------|
Db|-9---0---2-----|
Ab|-9---0---2-----|
Db|-9---0---2-----|

Comment and let me know how I did. My first tab :)
Suggest correction
comments
print report bad tab
6 comments total. Showing first comments.
0 reply
kilmerborges 175 Jan 14, 2013 06:25 AM

Great tab man, it works pretty well! Thanks!

+1 reply
TheBassMeister 140 Feb 05, 2014 04:42 PM, edited at 09:43 pm

Awesome job on this tab. This song is tricky to tab despite its simplicity, as the three other versions demonstrate. XD Of the four version of this song, I'd say this one is the most accurate.

0 reply
notgonnadie 445 Jan 07, 2015 03:35 PM

Thumbs up! Great job

guest
You may want to rate the tab now too:
select rating
Wanna post a correction for this tab? Suggest correction