Oops, an error
Loading. Please wait.

Break Me Down Tab

version 1
version 1

Whole song

by RED
7,320 views 1 this week
no commentswrite comment
1 2 3 4 5
x 5
add to favorites
launch autoscroll
font size
0
reset
how to read this tab
guitar tuner
Autoscroll
slow
fast
+/-
esc
set tempo
stop
Help us to improve Ultimate-Guitar.com Take our survey!
×
Difficulty
intermediate
SONG: Break Me Down
ARTIST: Red
ALBUM: End Of Silence
TUNING: Drop D tuned down half a step (Db Ab Db Gb Bb eb)
TABBED BY: Seth C

This is an awesome song it’s really simple. This is my first tab, but I’m pretty sure 
100% correct. The intro, verse and chorus are all the same.

INTRO/VERSE 1/CHORUS

eb|------------------------------------------|
Bb|------------------------------------------|
Gb|------------------------------------------|
Db|-0000000033333333555555558888888877777777-|
Ab|-0000000033333333555555558888888877777777-|
Db|-0000000033333333555555558888888877777777-|

VERSE 1 (Acoustic)

CHORUS

VERSE 2 ELECTRIC:

eb|-----------|
Bb|-----------|
Gb|-----------|
Db|-----------|
Ab|-0-0-------|
Db|-0-0-------|

CHORUS

BRIDGE:

eb|------------------------|
Bb|------------------------|
Gb|------------------------|
Db|------------------------|
Ab|-7--7-8-7-5---7--7-8-10-|
Db|-7--7-8-7-5---7--7-8-10-|

ORDER:

Intro
Verse
Chorus
Verse
Chorus
Bridge
Outro
Suggest correction
comments
print report bad tab
guest
You may want to rate the tab now too:
select rating
Wanna post a correction for this tab? Suggest correction