Oops, an error
Loading. Please wait.

Break Me Down Tab

version 3
version 3

Whole song

by RED
2,185 views 3 this week
no commentswrite comment
1 2 3 4 5
accurate
x 3
add to favorites
launch autoscroll
font size
0
reset
how to read this tab
guitar tuner
Autoscroll
slow
fast
+/-
esc
set tempo
stop
Help us to improve Ultimate-Guitar.com Take our survey!
×
Difficulty
Tuning
novice
C# G# C# F# A# D#
Artist: RED
Song: Break me down
Album: EnD oF silenCe
yeAr: 2005
TuninG: Drop C#
*=pAlm mute
~=note Cut
>=let rinG
/=sliDe up to next note
\=sliDe Down to next note
&=Continues to next pArt with no breAks

CoulDnt FiGure out the First intro pArt.


1nD intro At 0:29 (DistorteD eleCtriC GuitAr):
D#|--------------------------------------------------x-|
A#|--------------------------------------------------x-|
F#|--------------------------------------------------x-|
C#|-0>----8>----5>----8>----0--0>----3>----5>----8-----|0x
G#|-0>----8>----5>----8>----0--0>----3>----5>----8-----|0x
C#|-0>----8>----5>----8>----0--0>----3>----5>----8-----|0x

Verse 1 At 0:47

Chorus At 1:23:
D#|--------------------------------------------------x-|
A#|--------------------------------------------------x-|
F#|--------------------------------------------------x-|
C#|-0>----8>----5>----8>----0--0>----3>----5>----8-----|0x
G#|-0>----8>----5>----8>----0--0>----3>----5>----8-----|0x
C#|-0>----8>----5>----8>----0--0>----3>----5>----8-----|0x

verse 2 At 1:43 (those little GuitAr sCrAtChes)
D#|--------------------------------------------------x-|
A#|--------------------------------------------------x-|
F#|--------------------------------------------------x-|
C#|--------------------------------------------------x-|
G#|-0~0----------------------------0-0-0-0~0---------x-|
C#|-0~0----------------------------0-0-0-0~0---------x-|

2nD pArt oF verse 2 At 2:02
D#|--------------------------------------------------x-|
A#|--------------------------------------------------x-|
F#|--------------------------------------------------x-|
C#|--------------------------------------------------x-|
G#|-0~0----------------------------0-0-0-0~0---------x-|
C#|-0~0----------------------------0-0-0-0~0---------x-|

Chorus At 2:19
D#|----------------------------------------------------|
A#|----------------------------------------------------|
F#|----------------------------------------------------|
C#|-0>----8>----5>----8>----0--0>----3>----5>----8--0--|
G#|-0>----8>----5>----8>----0--0>----3>----5>----8--0--|
C#|-0>----8>----5>----8>----0--0>----3>----5>----8--0--| (X1)

BriDGe At 2:58
D#|-----------------------------------------------------------------|
A#|-----------------------------------------------------------------|
F#|-----------------------------------------------------------------|
C#|-0-0--0-1--0--00\0-0--0--1--3--0-0--0-1--0--00\0--0--0-1-0-0-1-3-|
G#|-0-0--0-1--0--00\0-0--0--1--3--0-0--0-1--0--00\0--0--0-1-0-0-1-3-|
C#|-0-0--0-1--0--00\0-0--0--1--3--0-0--0-1--0--00\0--0--0-1-0-0-1-3-|
                                                             * * *
D#|------------------------------------------------------------x-|
A#|------------------------------------------------------------x-|
F#|------------------------------------------------------------x-|
C#|-0-0--0-1--0--00\0-0--0--1--3--0-0--0-1--0--00\0--0--0--1-----|3x
G#|-0-0--0-1--0--00\0-0--0--1--3--0-0--0-1--0--00\0--0--0--1-----|3x
C#|-0-0--0-1--0--00\0-0--0--1--3--0-0--0-1--0--00\0--0--0--1-----|3x

InterluDe/Chorus At 3:37
D#|----------------------------------------------------|
A#|----------------------------------------------------|
F#|----------------------------------------------------|
C#|-0>----8>----5>----8>----0--0>----3>----5>----8--0--|
G#|-0>----8>----5>----8>----0--0>----3>----5>----8--0--|
C#|-0>----8>----5>----8>----0--0>----3>----5>----8--0--|

Outro/briDGe At 3:55
D#|-----------------------------------------------------------------|
A#|-----------------------------------------------------------------|
F#|-----------------------------------------------------------------|
C#|-0-0--0-1--0--00\0-0--0--1--3--0-0--0-1--0--00\0--0--0-1-0-0-1-3-|
G#|-0-0--0-1--0--00\0-0--0--1--3--0-0--0-1--0--00\0--0--0-1-0-0-1-3-|
C#|-0-0--0-1--0--00\0-0--0--1--3--0-0--0-1--0--00\0--0--0-1-0-0-1-3-|(&)
                                                             * * *
D#|------------------------------------------------------------x-|
A#|------------------------------------------------------------x-|
F#|------------------------------------------------------------x-|
C#|-0-0--0-1--0--00\0-0--0--1--3--0-0--0-1--0--00\0--0--0--1-----|3x
G#|-0-0--0-1--0--00\0-0--0--1--3--0-0--0-1--0--00\0--0--0--1-----|3x
C#|-0-0--0-1--0--00\0-0--0--1--3--0-0--0-1--0--00\0--0--0--1-----|3x

Credit to the Original Tab.. I just put it in the right tuning (IMO).
Suggest correction
Give kudos to tab author, rate the tab!
1 2 3 4 5
comments
print report bad tab
guest
You may want to rate the tab now too:
select rating
Please do not post tabs as comments. Select "correction" instead!