Oops, an error
Loading. Please wait.

Breathe Into Me Tab

version 1
version 1

Whole song

Interactive

by RED
41,143 views 15 this week
7 commentsread comments
1 2 3 4 5
accurate
x 4
add to favorites
launch autoscroll
font size
0
reset
how to read this tab
guitar tuner
Tab Pro tools
  • play this tab
  • loop segment
  • change instrument
  • show fretboard
  • metronome
×
Best way to learn
"Breathe Into Me"
Autoscroll
slow
fast
+/-
esc
set tempo
stop
Contributor
Difficulty
Tuning
intermediate
D A D G B E
Red
Breathe Into Me
End of Silence
Track 2
fret13
Dropped Db (C#)
 Db Ab Db Gb Bb Eb
(C# G# C# F# A# D#)

This song and this band rock. this is 
just about 99%.
============================================================================
/GUITAR 1\

intro-there is a keyboard
part here too.ill try to transcribe
it for guitar 2
|---------------------------------------------------------------------|
|---------------------------------------------------------------------|
|---------------------------------------------------------------------|
|------3----------------------3----------------------3----------------|
|--------3-01-------------------3-01-------------------3-01-----------|
|-0(0)0-0-0--0(0)0000-0--0(0)0-0-0--0(0)0000-0--0(0)0-0-0--0(0)0000-0-|
  . . ........ . ....    . . ........ . ....    . . ........ . ....
|-----------------------|
|-----------------------|
|-----------------------|
|------3----------------|
|--------3-01-----------|
|-0(0)0-0-0--0(0)0000-0-|
  . . ........ . .... .

intro II-play pretty fast
|--------------------------------------------------------------------------|
|--------------------------------------------------------------------------|
|--------------------------------------------------------------------------|
|-0-0-0-3-------0-0-0-0-------0-0-0-3-------0-0-0-0---------0-0-0-3--------|
|-0-0-0-----3-1-0-0-0---0-1-0-0-0-0-----3-1-0-0-0---0-1-0h1-0-0-0-----3-1--|
|-0-0-0---0-----0-0-0---------0-0-0---0-----0-0-0-----------0-0-0---0------|

|-------------------------------------|
|-------------------------------------|
|-------------------------------------|
|-0-0-0-0-------0-0-0-3-------0--0--0-|
|-0-0-0---0-1-0-0-0-0-----3-1-0--0--0-|
|-0-0-0---------0-0-0---0-----0--0--0-|
                              .
 
verse-wierd effect so just turn 
down tone a bit and youll be fine
|--------------------------------------------------------------------------|
|--------------------------------------------------------------------------|
|--------------------------------------------------------------------------|
|-------3-------------0-------x4-------------------------------------------|
|-----------3-1---------0-1-0----------------------------------------------|
|-0-0-0---0-----0-0-0------------------------------------------------------|
 play intro II

chorus-im not sure if this is right.
they might be playing the intro II.
this sounds okay though.
|---------------------------------|
|---------------------------------|
|---------------------------------|x8
|-----3-----------3-3-2-2-0-0-----|
|--------3--1-----------------3-1-|
|-0-------------------------------|

post chorus
|--------------------------------------------------------------------------|
|--------------------------------------------------------------------------|
|--------------------------------------------------------------------------|
|-0-0-0-3-------0-0-0-0-------0-0-0-3-------0-0-0--------------------------|
|-0-0-0-----3-1-0-0-0---0-1-0-0-0-0-----3-1-0-0-0--------------------------|
|-0-0-0---0-----0-0-0---------0-0-0---0-----0-0-0--------------------------|
                                            .
play verse
intro II
chorus
post chorus

Bridge
|--------------------------------------------------------------------------|
|--------------------------------------------------------------------------|
|--------------------------------------------------------------------------|
|-0000-000-----0-1-1-3-1-0-----0----8----3----1----0-1-1-3-1-0-------------|
|-0000-000-x4--0-1-1-3-1-0-x4--0-x4-8-x4-3-x4-1-x2-0-1-1-3-1-0-------------|
|-0000-000-----0-1-1-3-1-0-----0----8----3----1----0-1-1-3-1-0-------------|

play chorus
post chorus

============================================================================

/GUITAR 2\

Intro-transcribed from keyboard
think this is right
|--------------------------------------------------------------------------|
|---------------------6-6--------------6-6---------------------------------|
|--5\2---5-5\2--3-2-5-----5-2-3--3-2-5-----5-2-3---------------------------|
|------------------------------------------------3-0-----------------------|
|--------------------------------------------------------------------------|
|--------------------------------------------------------------------------|

Intro II-note same as Guitar 1
|--------------------------------------------------------------------------|
|--------------------------------------------------------------------------|
|--------------------------------------------------------------------------|
|-0-0-0-3-------0-0-0-0-------0-0-0-3-------0-0-0-0---------0-0-0-3--------|
|-0-0-0-----3-1-0-0-0---0-1-0-0-0-0-----3-1-0-0-0---0-1-0h1-0-0-0-----3-1--|
|-0-0-0---0-----0-0-0---------0-0-0---0-----0-0-0-----------0-0-0---0------|

|-------------------------------------|
|-------------------------------------|
|-------------------------------------|
|-0-0-0-0-------0-0-0-3-------0--0--0-|
|-0-0-0---0-1-0-0-0-0-----3-1-0--0--0-|
|-0-0-0---------0-0-0---0-----0--0--0-|
                              .
verse-Guitar 2
play Intro II

Chorus-check for timing. let the notes
ring
|--------------------------------------------------------------------------|
|--------------------------------------------------------------------------|
|--------------------------------------------------------------------------|
|-0----0-8----8-3----3-10----10-0----0-8----8-3----3-1p0-0-1-1-3-1-0-------|
|-0----0-8----8-3----3-10----10-0----0-8----8-3----3-1p0-0-1-1-3-1-0-------|
|-0----0-8----8-3----3-10----10-0----0-8----8-3----3-1p0-0-1-1-3-1-0-------|

post chorus
|--------------------------------------------------------------------------|
|--------------------------------------------------------------------------|
|--------------------------------------------------------------------------|
|-0-0-0-3-------0-0-0-0-------0-0-0-3-------0-0-0--------------------------|
|-0-0-0-----3-1-0-0-0---0-1-0-0-0-0-----3-1-0-0-0--------------------------|
|-0-0-0---0-----0-0-0---------0-0-0---0-----0-0-0--------------------------|
                                            .
play verse
Intro II 
Chorus 
Post Chorus

Bridge-wait a while Guitar 2 doesnt
play for a while
|------------------------------------------------------------|
|------------------------------------------------------------|
|------------------------------------------------------------|
|0-1-1-3-1-0-----0----8----3----1----0-1-1-3-1-0-------------|
|0-1-1-3-1-0-x4--0-x4-8-x4-3-x4-1-x2-0-1-1-3-1-0-------------|
|0-1-1-3-1-0-----0----8----3----1----0-1-1-3-1-0-------------|
play chorus and post chorus
============================================================================
updated, yes!!!!

questions? email me
comments
print report bad tab
7 comments total. Showing first comments.
0 reply
fret13 wrote on July 21 2006, 08:57 am

holy crap this tab was an accident i had accidently hit the submit button half way through and they posted this one instead of the whole song this is insane insane. rggg just give me a one i dont care

0 reply
fret13 wrote on July 21 2006, 09:03 am

email me if you want the rest. if they posted this then why not.(sigh)

0 reply
fret13 wrote on July 21 2006, 07:01 pm

trying to update dont know if theyll accept. please accept

I want to post or [tab]
guest
You may want to rate the tab now too:
select rating
Please do not post tabs as comments. Select "correction" instead!