Oops, an error
Loading. Please wait.

Breathe Into Me Bass Tab

version 2
version 2

Whole song

Interactive

by RED
2,599 views 6 this week
2 commentsread comments
1 2 3 4 5
x 3
add to favorites
launch autoscroll
font size
0
reset
guitar tuner
Autoscroll
slow
fast
+/-
esc
set tempo
stop
Help us to improve Ultimate-Guitar.com Take our survey!
×
Difficulty
novice
This is my first tab, but im pretty sure most of its right. 

(intro)
g-------------|-------------|------------|----------|   
d-------------|-------------|------------|----------|   
a-------------|-------------|------------|----------|   
e----575---454|---575---4545|---575---454|---575----|   
b-222---222---|222---222----|222---222---|222---32-2| 

theres a small rest preiod here, then u repeat intro.
then you go into the chorus.

(Chorus)
g-------------|-------------|------------|----------|
d-------------|-------------|------------|----------|
a-------------|-------------|------------|----------|
e-------------|-5-----------|-0----------|----------|
b-1-----------|-------------|------------|-0--------|x2

then...
g-------------|-----------|
d-------------|-----------|
a-------------|-----------|
e----575---454|----575----|
b-222---222---|-222---32-2|

another small break 

(intro)

(chorus)
small break..then i think this next part goes like this but im not positive

g--------|  |---------|---------|---------|-------------|
d--------|  |---------|---------|---------|-------------|
a--------|  |---------|---------|---------|-------------|
e--------|x4|---------|---------|---------|-------------|
b-2353-32|  |-33333333|-77777777|-55555555|-3333-2353-32|

(chorus)x4

then (intro)x1

that should be pretty accurate. hope everyone likes it
Suggest correction
Give kudos to tab author, rate the tab!
1 2 3 4 5
comments
print report bad tab
2 comments total.
0 reply
bass_head 83 May 17, 2013 01:58 PM

First part of the chorus is 2 not 1. Other than that it's great!

0 reply
bass_head 83 May 17, 2013 01:58 PM

This is my first tab, but im pretty sure most of its right.

(intro)
g-------------|-------------|------------|----------|
d-------------|-------------|------------|----------|
a-------------|-------------|------------|----------|
e----575---454|---575---4545|---575---454|---575----|
b-222---222---|222---222----|222---222---|222---32-2|

theres a small rest preiod here, then u repeat intro.
then you go into the chorus.

(Chorus)
g-------------|-------------|------------|----------|
d-------------|-------------|------------|----------|
a-------------|-------------|------------|----------|
e-------------|-5-----------|-0----------|----------|
b-2-----------|-------------|------------|-0--------|x2

then...
g-------------|-----------|
d-------------|-----------|
a-------------|-----------|
e----575---454|----575----|
b-222---222---|-222---32-2|

another small break

(intro)

(chorus)
small break..then i think this next part goes like this but im not positive

g--------| |---------|---------|---------|-------------|
d--------| |---------|---------|---------|-------------|
a--------| |---------|---------|---------|-------------|
e--------|x4|---------|---------|---------|-------------|
b-2353-32| |-33333333|-77777777|-55555555|-3333-2353-32|

(chorus)x4

then (intro)x1

that should be pretty accurate. hope everyone likes it

guest
You may want to rate the tab now too:
select rating
Wanna post a correction for this tab? Suggest correction