Oops, an error
Loading. Please wait.

Breathe Into Me Tab

version 3
version 3

Whole song

Interactive

by RED
71,166 views 24 this week
31 commentsread comments
1 2 3 4 5
excellent!
x 37
add to favorites
launch autoscroll
font size
0
reset
how to read this tab
guitar tuner
Autoscroll
slow
fast
+/-
esc
set tempo
stop
Help us to improve Ultimate-Guitar.com Take our survey!
×
Red
Breathe Into Me
Tabbed by U B the band (Phil)
Tuning Db Ab Db Gb Bb Eb

Legend:
pm-palm mute

Intro: 00:00 guitar 1 Distorted palm mute
Eb|------------------------------------------------------------------------|
Bb|------------------------------------------------------------------------|
Gb|------------------------------------------------------------------------|
Db|------------------------------------------------------------------------|
Ab|--------8-0---------------5-0--------------8-0---------------5-0--------|
Db|--0-0-0-----10-8-8--0-0-0-----8-7-7--0-0-0-----10-8-8--0-0-0-----8-7-8--|

Intro: Guitar 1 Distorted palm mute
Eb|------------------------------------------------------------------------|
Bb|------------------------------------------------------------------------|
Gb|------------------------------------------------------------------------|
Db|------------------------------------------------------------------------|
Ab|--------8-0---------------5-0--------------8-0---------------5----------|
Db|--0-0-0-----10-8-8--0-0-0-----8-7-7--0-0-0-----10-8-8--0-0-0------------|

Intro: 00:11 Both Guitars Heavy Distortion
Eb|------------------------------------------------------------------------|
Bb|------------------------------------------------------------------------|
Gb|--------10---------------7-------------10---------------7---------------|
Db|---------x---------------x--------------x---------------x---------------|
Ab|--0-0-0--8--10-8--0-0-0--5--8-7--0-0-0--8--10-8--0-0-0--5--8-7-8--------|
Db|--0-0-0-----10-8--0-0-0-----8-7--0-0-0-----10-8--0-0-0-----8-7-8--------|

Intro: Both Guitars Heavy Distortion
Eb|------------------------------------------------------------------------|
Bb|------------------------------------------------------------------------|
Gb|--------10---------------7-------------10-------------------------------|
Db|---------x---------------x--------------x-------------------------------|
Ab|--0-0-0--8--10-8--0-0-0--5--8-7--0-0-0--8--10-8--0--0-0-----------------|
Db|--0-0-0-----10-8--0-0-0-----8-7--0-0-0-----10-8--0--0-0-----------------|
                                                    pm

Verse 1: 00:23 Guitar 1 Distorted low volume with fuzz
Eb|------------------------------------------------------------------------|
Bb|------------------------------------------------------------------------|
Gb|--------10---------------7-------------10---------------7---------------|
Db|---------x---------------x--------------x---------------x---------------|
Ab|--0-0-0--8--10-8--0-0-0--5--8-7--0-0-0--8--10-8--0-0-0--5--8-7-8--------|
Db|--0-0-0-----10-8--0-0-0-----8-7--0-0-0-----10-8--0-0-0-----8-7-8--------|

Verse 1: Guitar 1 Distorted low volume with fuzz
Eb|------------------------------------------------------------------------|
Bb|------------------------------------------------------------------------|
Gb|--------10---------------7-------------10-------------------------------|
Db|---------x---------------x--------------x-------------------------------|
Ab|--0-0-0--8--10-8--0-0-0--5--8-7--0-0-0--8--10-8----0--0---1--3--1-------|
Db|--0-0-0-----10-8--0-0-0-----8-7--0-0-0-----10-8----0--0---1--3--1-------|

Verse 1: Both Guitars Heavy Distortion
Eb|------------------------------------------------------------------------|
Bb|------------------------------------------------------------------------|
Gb|--------10---------------7-------------10---------------7---------------|
Db|---------x---------------x--------------x---------------x---------------|
Ab|--0-0-0--8--10-8--0-0-0--5--8-7--0-0-0--8--10-8--0-0-0--5--8-7-8--------|
Db|--0-0-0-----10-8--0-0-0-----8-7--0-0-0-----10-8--0-0-0-----8-7-8--------|

Verse 1: Both Guitars Heavy Distortion
Eb|------------------------------------------------------------------------|
Bb|------------------------------------------------------------------------|
Gb|--------10---------------7-------------10-------------------------------|
Db|---------x---------------x--------------x-------------------------------|
Ab|--0-0-0--8--10-8--0-0-0--5--8-7--0-0-0--8--10-8--0--1-1-----------------|
Db|--0-0-0-----10-8--0-0-0-----8-7--0-0-0-----10-8--0--1-1-----------------|
                                                    pm

Chorus: 00:46 Both Guitars Heavy Distortion
Eb|------------------------------------------------------------------------|
Bb|------------------------------------------------------------------------|
Gb|--------------------------------------------------5-5-5-5-5-5-5-5-------|
Db|--0-0-0-0-0-0-0-0-8-8-8-8-8-8-8-8-3-3-3-3-3-3-3-3-5-5-5-5-5-5-5-5-------|
Ab|--0-0-0-0-0-0-0-0-8-8-8-8-8-8-8-8-3-3-3-3-3-3-3-3-3-3-3-3-3-3-3-3-------|
Db|--0-0-0-0-0-0-0-0-8-8-8-8-8-8-8-8-3-3-3-3-3-3-3-3-----------------------|

Chorus: Both Guitars Heavy Distortion
Eb|------------------------------------------------------------------------|
Bb|------------------------------------------------------------------------|
Gb|------------------------------------------------------------------------|
Db|--0-0-0-0-0-0-0-0-8-8-8-8-8-8-8-8-3-3-3-3-3-3-3-3-1--1--1---------------|
Ab|--0-0-0-0-0-0-0-0-8-8-8-8-8-8-8-8-3-3-3-3-3-3-3-3-1--1--1--0--0--1--3--1|
Db|--0-0-0-0-0-0-0-0-8-8-8-8-8-8-8-8-3-3-3-3-3-3-3-3-1--1--1--0--0--1--3--1|

Post Chorus: Both Guitars Heavy Distortion
Eb|------------------------------------------------------------------------|
Bb|------------------------------------------------------------------------|
Gb|--------10---------------7-------------10-------------------------------|
Db|---------x---------------x--------------x-------------------------------|
Ab|--0-0-0--8--10-8--0-0-0--5--8-7--0-0-0--8--10-8--0--0-0-----------------|
Db|--0-0-0-----10-8--0-0-0-----8-7--0-0-0-----10-8--0--0-0-----------------|
                                                    pm

Verse 2: 01:15 Guitar 1 Distorted low volume with fuzz
Eb|------------------------------------------------------------------------|
Bb|------------------------------------------------------------------------|
Gb|--------10---------------7-------------10---------------7---------------|
Db|---------x---------------x--------------x---------------x---------------|
Ab|--0-0-0--8--10-8--0-0-0--5--8-7--0-0-0--8--10-8--0-0-0--5--8-7-8--------|
Db|--0-0-0-----10-8--0-0-0-----8-7--0-0-0-----10-8--0-0-0-----8-7-8--------|

Verse 2: Guitar 1 Distorted low volume with fuzz
Eb|------------------------------------------------------------------------|
Bb|------------------------------------------------------------------------|
Gb|--------10---------------7-------------10-------------------------------|
Db|---------x---------------x--------------x-------------------------------|
Ab|--0-0-0--8--10-8--0-0-0--5--8-7--0-0-0--8--10-8----0--0---1--3--1-------|
Db|--0-0-0-----10-8--0-0-0-----8-7--0-0-0-----10-8----0--0---1--3--1-------|
                                                                           |
Verse 2: 01:21 Guitar 2 (palm muted)                                       |
Eb|------------------------------------------------------------------------|
Bb|------------------------------------------------------------------------|
Gb|------------------------------------------------------------------------|
Db|------------------------------------------------------------------------|
Ab|--0--0------0-----0--0------0-----0--0----0--------0--0---1--3--1-------|
Db|--0--0------0-----0--0------0-----0--0----0--------0--0---1--3--1-------|
                                                      ^ End palm mute
Verse 2: Both Guitars Heavy Distortion
Eb|------------------------------------------------------------------------|
Bb|------------------------------------------------------------------------|
Gb|--------10---------------7-------------10---------------7---------------|
Db|---------x---------------x--------------x---------------x---------------|
Ab|--0-0-0--8--10-8--0-0-0--5--8-7--0-0-0--8--10-8--0-0-0--5--8-7-8--------|
Db|--0-0-0-----10-8--0-0-0-----8-7--0-0-0-----10-8--0-0-0-----8-7-8--------|

Verse 2: Both Guitars Heavy Distortion
Eb|------------------------------------------------------------------------|
Bb|------------------------------------------------------------------------|
Gb|--------10---------------7-------------10-------------------------------|
Db|---------x---------------x--------------x-------------------------------|
Ab|--0-0-0--8--10-8--0-0-0--5--8-7--0-0-0--8--10-8--0--1-1-----------------|
Db|--0-0-0-----10-8--0-0-0-----8-7--0-0-0-----10-8--0--1-1-----------------|
                                                    pm

Chorus: 01:38 Both Guitars Heavy Distortion
Eb|------------------------------------------------------------------------|
Bb|------------------------------------------------------------------------|
Gb|--------------------------------------------------5-5-5-5-5-5-5-5-------|
Db|--0-0-0-0-0-0-0-0-8-8-8-8-8-8-8-8-3-3-3-3-3-3-3-3-5-5-5-5-5-5-5-5-------|
Ab|--0-0-0-0-0-0-0-0-8-8-8-8-8-8-8-8-3-3-3-3-3-3-3-3-3-3-3-3-3-3-3-3-------|
Db|--0-0-0-0-0-0-0-0-8-8-8-8-8-8-8-8-3-3-3-3-3-3-3-3-----------------------|

Chorus: Both Guitars Heavy Distortion
Eb|------------------------------------------------------------------------|
Bb|------------------------------------------------------------------------|
Gb|------------------------------------------------------------------------|
Db|--0-0-0-0-0-0-0-0-8-8-8-8-8-8-8-8-3-3-3-3-3-3-3-3-1--1--1---------------|
Ab|--0-0-0-0-0-0-0-0-8-8-8-8-8-8-8-8-3-3-3-3-3-3-3-3-1--1--1--0--0--1--3--1|
Db|--0-0-0-0-0-0-0-0-8-8-8-8-8-8-8-8-3-3-3-3-3-3-3-3-1--1--1--0--0--1--3--1|

Bridge: 02:01 guitar 1 Distorted palm mute with fuzz
Eb|------------------------------------------------------------------------|
Bb|------------------------------------------------------------------------|
Gb|------------------------------------------------------------------------|
Db|------------------------------------------------------------------------|
Ab|--------8-0---------------5-0--------------8-0---------------5-0--------|
Db|--0-0-0-----10-8-8--0-0-0-----8-7-7--0-0-0-----10-8-8--0-0-0-----8-7-8--|

Eb|------------------------------------------------------------------------|
Bb|------------------------------------------------------------------------|
Gb|------------------------------------------------------------------------|
Db|------------------------------------------------------------------------|
Ab|--------8-0---------------5-0--------------8-0--------------------------|
Db|--0-0-0-----10-8-8--0-0-0-----8-7-7--0-0-0-----10-8-8--0----------------|

Bridge: 02:13 Guitar 1 - Heavy Distortion PLAY 2 TIMES
Eb|------------------------------------------------------------------------|
Bb|------------------------------------------------------------------------|
Gb|------------------------------------------------------------------------|
Db|--0--0--1--3--1--0----------------0--0--1--3--1--0----------------------|
Ab|--0--0--1--3--1--0----------------0--0--1--3--1--0----------------------|
Db|--0--0--1--3--1--0----------------0--0--1--3--1--0----------------------|
                                                                           |
Bridge: 02:13 Guitar 3 In Studio Low Volume, Fuzz, Distortion PLAY 2 TIMES |
Eb|------------------------------------------------------------------------|
Bb|------------------------------------------------------------------------|
Gb|------------------------------------------------------------------------|
Db|------------------------------------------------------------------------|
Ab|-----------------0--0---1--3--1--0---------------0--0---1--3--1--0------|
Db|-----------------0--0---1--3--1--0---------------0--0---1--3--1--0------|

Bridge: 02:25 Guitars 1 & 2 Distorted
Eb|------------------------------------------------------------------------|
Bb|------------------------------------------------------------------------|
Gb|------------------------------------------------------------------------|
Db|--1---1---1---1---1---1---1---1---5---5---5---5---5---5---5---5---------|
Ab|--1---1---1---1---1---1---1---1---5---5---5---5---5---5---5---5---------|
Db|--1---1---1---1---1---1---1---1---5---5---5---5---5---5---5---5---------|

Bridge: Guitars 1 & 2 Distorted
Eb|------------------------------------------------------------------------|
Bb|------------------------------------------------------------------------|
Gb|------------------------------------------------------------------------|
Db|--3---3---3---3---3---3---3---3---1---1---1---1-------------------------|
Ab|--3---3---3---3---3---3---3---3---1---1---1---1-------------------------|
Db|--3---3---3---3---3---3---3---3---1---1---1---1-------------------------|
                                                                           |
Bridge: 02:13 Guitar 3, In Studio - Low Volume, Fuzz, Heavy Distortion     |
Eb|------------------------------------------------------------------------|
Bb|------------------------------------------------------------------------|
Gb|------------------------------------------------------------------------|
Db|------------------------------------------------------------------------|
Ab|-------------------------------------------------0--0---1--3--1---------|
Db|-------------------------------------------------0--0---1--3--1---------|

Chorus: 02:36 Both Guitars Heavy Distortion PLAY 2 TIMES
Eb|------------------------------------------------------------------------|
Bb|------------------------------------------------------------------------|
Gb|--------------------------------------------------5-5-5-5-5-5-5-5-------|
Db|--0-0-0-0-0-0-0-0-8-8-8-8-8-8-8-8-3-3-3-3-3-3-3-3-5-5-5-5-5-5-5-5-------|
Ab|--0-0-0-0-0-0-0-0-8-8-8-8-8-8-8-8-3-3-3-3-3-3-3-3-3-3-3-3-3-3-3-3-------|
Db|--0-0-0-0-0-0-0-0-8-8-8-8-8-8-8-8-3-3-3-3-3-3-3-3-----------------------|

Chorus: Both Guitars Heavy Distortion
Eb|------------------------------------------------------------------------|
Bb|------------------------------------------------------------------------|
Gb|------------------------------------------------------------------------|
Db|--0-0-0-0-0-0-0-0-8-8-8-8-8-8-8-8-3-3-3-3-3-3-3-3-1--1--1---------------|
Ab|--0-0-0-0-0-0-0-0-8-8-8-8-8-8-8-8-3-3-3-3-3-3-3-3-1--1--1--0--0--1--3--1|
Db|--0-0-0-0-0-0-0-0-8-8-8-8-8-8-8-8-3-3-3-3-3-3-3-3-1--1--1--0--0--1--3--1|

Outro: 03:22 Both Guitars Heavy Distortion
Eb|------------------------------------------------------------------------|
Bb|------------------------------------------------------------------------|
Gb|--------10---------------7-------------10---------------7---------------|
Db|---------x---------------x--------------x---------------x---------------|
Ab|--0-0-0--8--10-8--0-0-0--5--8-7--0-0-0--8--10-8--0-0-0--5--8-7-8--------|
Db|--0-0-0-----10-8--0-0-0-----8-7--0-0-0-----10-8--0-0-0-----8-7-8--------|

Outro: Both Guitars Heavy Distortion
Eb|------------------------------------------------------------------------|
Bb|------------------------------------------------------------------------|
Gb|--------10---------------7-------------10-------------------------------|
Db|---------x---------------x--------------x-------------------------------|
Ab|--0-0-0--8--10-8--0-0-0--5--8-7--0-0-0--8--10-8--0--1-1-----------------|
Db|--0-0-0-----10-8--0-0-0-----8-7--0-0-0-----10-8--0--1-1-----------------|
                                                    pm


Finished!
Suggest correction
comments
print report bad tab
31 comments total. Showing first comments. show 1 bad comment
+3 reply
my_phobia 10 wrote on September 22 2006, 11:14 am

I thought it was ok and he got the intro right

+4 reply
fret13 1,031 wrote on September 30 2006, 08:29 am

yup its just mine and KevP7714's combine, perfect

guest
You may want to rate the tab now too:
select rating
Wanna post a correction for this tab? Suggest correction