Oops, an error
Loading. Please wait.

Confession Whats In My Head Bass Tab

by RED
1,068 views 1 this week
no commentswrite comment
1 2 3 4 5
please rate
add to favorites
launch autoscroll
font size
0
reset
guitar tuner
Autoscroll
slow
fast
+/-
esc
set tempo
stop
Help us to improve Ultimate-Guitar.com Take our survey!
×
Author
Tuning
A# F A# D# G C
-------------------------------------------------------------------------------
		     Confession - RED
-------------------------------------------------------------------------------

Tabbed By: SK8nBASS

Tuning: Drop Bb (Yea I know he plays it with a 5 string but whatever)

  Intro x2
Eb|-------------------------|-------------------------|-------------------------|
Bb|-------------------------|-------------------------|-------------------------|
F |-------------------------|-------------------------|-------------------------|
Bb|-0-2-2-0-2-3-2-0-3-2-0-2-|-0-2-2-0-2-3-2-0-5-3-0-2-|-0-2-2-0-2-3-2-0-3-2-0-2-|

Eb|-------------------------|
Bb|-------------------------|
F |-------------------------|
Bb|-0-2-3-3-------------3-3-|

  Verse
Eb|----------------------------------------------------------|
Bb|----------------------------------------------------------|
F |----------------------------------------------------------|
Bb|-0-2-22---------0-2-22--------0-02-22--------33-33--55-55-|x2

  Pre-Chorus
Eb|----------------------------------------------------------|
Bb|----------------------------------------------------------|
F |----------------------------------------------------------|
Bb|-0-2-22---------0-2-22--------0-02-22--------3-3-3--5-5-5-|

  Chorus
Eb|-------------------------------------------------------------------------|
Bb|-------------------------------------------------------------------------|
F |-----------------3-3-3-3-3-3-3-3-----------------3-3-3-3-3-3-2-2-2-2-2-2-|
Bb|-2-2-2-2-2-2-2-2-----------------0-0-0-0-0-0-0-0-------------------------|

Eb|-------------------------------------------------------------------------|
Bb|-------------------------------------------------------------------------|
F |-----------------3-3-3-3-3-3-3-3-----------------------------------------|
Bb|-2-2-2-2-2-2-2-2-----------------0-0-0-0-0-0-0-0-0-0-0-0-0-0-0-0-0-0-0-0-|

Eb|-------------------------|-------------------------|-------------------------|
Bb|-------------------------|-------------------------|-------------------------|
F |-------------------------|-------------------------|-------------------------|
Bb|-0-2-2-0-2-3-2-0-3-2-0-2-|-0-2-2-0-2-3-2-0-5-3-0-2-|-0-2-2-0-2-3-2-0-3-2-0-2-|

Eb|-------------------------|
Bb|-------------------------|
F |-------------------------|
Bb|-0-2-3-3-------------3-3-|

  Verse
Eb|----------------------------------------------------------|
Bb|----------------------------------------------------------|
F |----------------------------------------------------------|
Bb|-0-2-22---------0-2-22--------0-02-22--------33-33--55-55-|x2

  Pre-Chorus
Eb|----------------------------------------------------------|
Bb|----------------------------------------------------------|
F |----------------------------------------------------------|
Bb|-0-2-22---------0-2-22--------0-02-22--------3-3-3--5-5-5-|

  Chorus
Eb|-------------------------------------------------------------------------|
Bb|-------------------------------------------------------------------------|
F |-----------------3-3-3-3-3-3-3-3-----------------3-3-3-3-3-3-2-2-2-2-2-2-|
Bb|-2-2-2-2-2-2-2-2-----------------0-0-0-0-0-0-0-0-------------------------|

Eb|-------------------------------------------------------------------------|
Bb|-------------------------------------------------------------------------|
F |-----------------3-3-3-3-3-3-3-3-----------------------------------------|
Bb|-2-2-2-2-2-2-2-2-----------------0-0-0-0-0-0-0-0-0-0-0-0-0-0-0-0-0-0-0-0-|

  Bridge
Eb|-------------------------------------------------------------------------|
Bb|-------------------------------------------------------------------------|
F |-3-3-3-3-3-3-3-3---------------------------------------------------------|
Bb|-----------------5-5-5-5-5-5-5-5-0-0-0-0-0-0-0-0-0-0-0-0-0-0-0-0-0-0-0-0-|x2
  
  Outro
Eb|-----------------------------------------------------------|
Bb|-----------------------------------------------------------|
F |-----------------------------------------------------------|
Bb|-0-2-2-0-2-3-2-0-3-2-0~-------------0-2-2-0-2-3-2-0-3-2-0~-|

Eb|-------------------------|-------------------------|-------------------------|
Bb|-------------------------|-------------------------|-------------------------|
F |-------------------------|-------------------------|-------------------------|
Bb|-0-2-2-0-2-3-2-0-3-2-0-2-|-0-2-2-0-2-3-2-0-5-3-0-2-|-0-2-2-0-2-3-2-0-3-2-0-2-|

Eb|-------------------------|---------------|
Bb|-------------------------|---------------|
F |-------------------------|---------------|
Bb|-0-2-2-0-2-3-2-0-5-3-0-2-|-2-----2-----2-|




| /  slide up
| \  slide down
| h  hammer-on
| p  pull-off
| ~  hold note
| +  harmonic
| x  Mute note
===============================================================================

Suggest correction
Give kudos to tab author, rate the tab!
1 2 3 4 5
comments
print report bad tab
guest
You may want to rate the tab now too:
select rating
Please do not post tabs as comments. Select "correction" instead!