Oops, an error
Loading. Please wait.

Death Of Me Tab

version 1
version 1

Whole song

Interactive

by RED
39,827 views 18 this week
21 commentsread comments
1 2 3 4 5
excellent!
x 13
add to favorites
launch autoscroll
font size
0
reset
how to read this tab
guitar tuner
Tab Pro tools
  • play this tab
  • loop segment
  • change instrument
  • show fretboard
  • metronome
Autoscroll
slow
fast
+/-
esc
set tempo
stop
Contributor
RED
Death Of Me
Tabbed by U B the band
Tuning Bb F Bb Eb G C

Legend
h-hammer on                       p-pull off

Intro: Guitars 1 & 2 (Distorted) PLAY 4 TIMES
 C|---------------------------------------------------------------------------|
 G|---------------------------------------------------------------------------|
Eb|-------------------5--5--5--8--8--8---------------------3--3--3------------|
Bb|--0-0--0----0--0---5--5--5--8--8--8----0-0--0----0--0---3--3--3--3--3--3---|
 F|--0-0--0----0--0---3--3--3--6--6--6----0-0--0----0--0---1--1--1--3--3--3---|
Bb|--0-0--0----0--0-----------------------0-0--0----0--0------------3--3--3---|

Verse 1: Guitar 1 (Low Volume Distortion with Fuzz) PLAY 3 TIMES
 C|---------------------------------------------------------------------------|
 G|---------------------------------------------------------------------------|
Eb|---------------------------------------------------------------------------|
Bb|---------------------------------------------------------------------------|
 F|---------------------------------------------------------------------------|
Bb|--0--0--0--3--0--5-------0--6--3--5---0--2--0--3--0--5---6--6--6--5--3--5--|

Verse 1: Guitar 1 (Low Volume Distortion with Fuzz) PLAY 1 TIME
 C|---------------------------------------------------------------------------|
 G|---------------------------------------------------------------------------|
Eb|---------------------------------------------------------------------------|
Bb|---------------------------------------------------------------------------|
 F|---------------------------------------------------------------------------|
Bb|--0--0--0--3--0--5-------0--6--3--5---0--2--0--3--0--5---6--6--6--5--5--6--|
                                                                              |
Verse 1: Guitar 2 (Distortion) PLAY 1 TIME                                    |
 C|---------------------------------------------------------------------------|
 G|---------------------------------------------------------------------------|
Eb|---------------------------------------------------------------------------|
Bb|---------------------------------------------------------------------------|
 F|---------------------------------------------------------------------------|
Bb|---------------------------------------------------------6--6--6--5--5--6--|

Chorus: Guitars 1 & 2 (Distorted) PLAY 2 TIMES
 C|---------------------------------------------------------------------------|
 G|---------------------------------------------------------------------------|
Eb|----------------------------------------3---3---3-3-3-3----2---2---2-2-2-2-|
Bb|--0---0---0-0-0-0----3---3---3-3-3-3----3---3---3-3-3-3----3---3---3-3-3-3-|
 F|--0---0---0-0-0-0----3---3---3-3-3-3----1---1---1-1-1-1----0---0---0-0-0-0-|
Bb|--0---0---0-0-0-0----3---3---3-3-3-3---------------------------------------|

Post Chorus: Guitars 1 & 2 (Distorted) PLAY 2 TIMES
 C|---------------------------------------------------------------------------|
 G|---------------------------------------------------------------------------|
Eb|-------------------5--5--5--8--8--8---------------------3--3--3------------|
Bb|--0-0--0----0--0---5--5--5--8--8--8----0-0--0----0--0---3--3--3--3--3--3---|
 F|--0-0--0----0--0---3--3--3--6--6--6----0-0--0----0--0---1--1--1--3--3--3---|
Bb|--0-0--0----0--0-----------------------0-0--0----0--0------------3--3--3---|

Verse 2: Guitar 1 (Low Volume Distortion with Fuzz) PLAY 3 TIMES
 C|---------------------------------------------------------------------------|
 G|---------------------------------------------------------------------------|
Eb|---------------------------------------------------------------------------|
Bb|---------------------------------------------------------------------------|
 F|---------------------------------------------------------------------------|
Bb|--0--0--0--3--0--5-------0--6--3--5---0--2--0--3--0--5---6--6--6--5--3--5--|


Verse 2: Guitar 1 (Low Volume Distortion with Fuzz) PLAY 1 TIME
 C|---------------------------------------------------------------------------|
 G|---------------------------------------------------------------------------|
Eb|---------------------------------------------------------------------------|
Bb|---------------------------------------------------------------------------|
 F|---------------------------------------------------------------------------|
Bb|--0--0--0--3--0--5-------0--6--3--5---0--2--0--3--0--5---6--6--6--5--5--6--|
                                                                              |
Verse 2: Guitar 2 (Distortion) PLAY 1 TIME                                    |
 C|---------------------------------------------------------------------------|
 G|---------------------------------------------------------------------------|
Eb|---------------------------------------------------------------------------|
Bb|---------------------------------------------------------------------------|
 F|---------------------------------------------------------------------------|
Bb|---------------------------------------------------------6--6--6--5--5--6--|

Chorus: Guitars 1 & 2 (Distorted) PLAY 2 TIMES
 C|---------------------------------------------------------------------------|
 G|---------------------------------------------------------------------------|
Eb|----------------------------------------3---3---3-3-3-3----2---2---2-2-2-2-|
Bb|--0---0---0-0-0-0----3---3---3-3-3-3----3---3---3-3-3-3----3---3---3-3-3-3-|
 F|--0---0---0-0-0-0----3---3---3-3-3-3----1---1---1-1-1-1----0---0---0-0-0-0-|
Bb|--0---0---0-0-0-0----3---3---3-3-3-3---------------------------------------|

Chorus: Guitar 1 (Distorted) PLAY 2 TIMES
 C|---------------------------------------------------------------------------|
 G|---------------------------------------------------------------------------|
Eb|----------------------------------------3---3---3-3-3-3----2---2---2-2-2-2-|
Bb|--0---0---0-0-0-0----3---3---3-3-3-3----3---3---3-3-3-3----3---3---3-3-3-3-|
 F|--0---0---0-0-0-0----3---3---3-3-3-3----1---1---1-1-1-1----0---0---0-0-0-0-|
Bb|--0---0---0-0-0-0----3---3---3-3-3-3---------------------------------------|
                                                                              |
Chorus: Guitar 2 (Distorted) PLAY 2 TIMES                                     |
 C|---------------------------------------------------------------------------|
 G|---------------------------------------------------------------------------|
Eb|--14--14--14-141414--17--17--171717-19--14--14--12--121212-9-9-9-9-9101010-|
Bb|---x---x---x--x-x-x---x---x---x-x-x--x---x---x---x---x-x-x-x-x-x-x-x-x-x-x-|
 F|--12--12--12-121212--15--15--151515-17--12--12--10--101010-7-7-7-7-7-8-8-8-|
Bb|---------------------------------------------------------------------------|

Bridge: Guitars 1 & 2 (Distorted) PLAY 1 TIME
 C|---------------------------------------------------------------------------|
 G|---------------------------------------------------------------------------|
Eb|---------------------------------------------------------------------------|
Bb|---------------------------------------------------------------------------|
 F|---------------------------------------------------------------------------|
Bb|--0h1p0-0h1p0--------------------------0h1p0-0h1p0-------------------------|

Bridge: Guitars 1 & 2 (Distorted) PLAY 1 TIME
 C|---------------------------------------------------------------------------|
 G|---------------------------------------------------------------------------|
Eb|---------------------------------------------------------------------------|
Bb|---------------------------------------------------------------------------|
 F|---------------------------------------------------------------------------|
Bb|--0h1p0-0h1p0-----0h1p0-0h1p0-333-666--0h1p0-0h1p0-----0h1p0-0h1p0-333-666-|

Bridge: Guitars 1 & 2 (Distorted) PLAY 2 TIMES
 C|---------------------------------------------------------------------------|
 G|---------------------------------------------------------------------------|
Eb|---------------------------------------------------------------------------|
Bb|--0h1-0--0h1-0--0--0h1-0--0h1-3/66666--0h1-0--0h1-0--0--0h1-0--0h1-3/66666-|
 F|--0h1-0--0h1-0--0--0h1-0--0h1-3/66666--0h1-0--0h1-0--0--0h1-0--0h1-3/66666-|
Bb|--0h1-0--0h1-0--0--0h1-0--0h1-3/66666--0h1-0--0h1-0--0--0h1-0--0h1-3/66666-|

Post Bridge: Guitar 1 (Low Volume Distortion with Fuzz) PLAY 3 TIMES
 C|---------------------------------------------------------------------------|
 G|---------------------------------------------------------------------------|
Eb|---------------------------------------------------------------------------|
Bb|---------------------------------------------------------------------------|
 F|---------------------------------------------------------------------------|
Bb|--0--0--0--3--0--5-------0--6--3--5---0--2--0--3--0--5---6--6--6--5--3--5--|
                                                                              |
Post Bridge: Guitar 2 (Volume Swell Distortion with Fuzz) PLAY 3 TIMES        |
 C|---0--0--0--0-------0--0--0--0-------0--0--0--0---------0--0--0--0---------|
 G|---x--x--x--x-------x--x--x--x-------x--x--x--x---------x--x--x--x---------|
Eb|--10-10-10-10------10-10-10-10------10-10-10-10--------10-10-10-10---------|
Bb|---------------------------------------------------------------------------|
 F|---------------------------------------------------------------------------|
Bb|---------------------------------------------------------------------------|

Post Bridge: Guitar 1 (Low Volume Distortion with Fuzz) PLAY 1 TIME
 C|---------------------------------------------------------------------------|
 G|---------------------------------------------------------------------------|
Eb|---------------------------------------------------------------------------|
Bb|---------------------------------------------------------------------------|
 F|---------------------------------------------------------------------------|
Bb|--0--0--0--3--0--5---------------------------------------6--6--6--5--5--6--|
                                                                              |
Post Bridge: Guitar 2 (Distortion with Fuzz) PLAY 1 TIME                      |
 C|---0--0--0--0-------0--0--0--0--0--0--0--0--0--0--0------------------------|
 G|---x--x--x--x-------x--x--x--x--x--x--x--x--x--x--x------------------------|
Eb|--10-10-10-10------10-10-10-10-10-10-10-10-10-10-10------------------------|
Bb|---------------------------------------------------------------------------|
 F|---------------------------------------------------------------------------|
Bb|---------------------------------------------------------------------------|

Chorus: Guitars 1 & 2 (Distorted) PLAY 2 TIMES
 C|---------------------------------------------------------------------------|
 G|---------------------------------------------------------------------------|
Eb|----------------------------------------3---3---3-3-3-3----2---2---2-2-2-2-|
Bb|--0---0---0-0-0-0----3---3---3-3-3-3----3---3---3-3-3-3----3---3---3-3-3-3-|
 F|--0---0---0-0-0-0----3---3---3-3-3-3----1---1---1-1-1-1----0---0---0-0-0-0-|
Bb|--0---0---0-0-0-0----3---3---3-3-3-3---------------------------------------|

Chorus: Guitar 1 (Distorted) PLAY 2 TIMES
 C|---------------------------------------------------------------------------|
 G|---------------------------------------------------------------------------|
Eb|----------------------------------------3---3---3-3-3-3----2---2---2-2-2-2-|
Bb|--0---0---0-0-0-0----3---3---3-3-3-3----3---3---3-3-3-3----3---3---3-3-3-3-|
 F|--0---0---0-0-0-0----3---3---3-3-3-3----1---1---1-1-1-1----0---0---0-0-0-0-|
Bb|--0---0---0-0-0-0----3---3---3-3-3-3---------------------------------------|
                                                                              |
Chorus: Guitar 2 (Distorted) PLAY 2 TIMES                                     |
 C|---------------------------------------------------------------------------|
 G|---------------------------------------------------------------------------|
Eb|--14--14--14-141414--17--17--171717-19--14--14--12--121212-9-9-9-9-9101010-|
Bb|---x---x---x--x-x-x---x---x---x-x-x--x---x---x---x---x-x-x-x-x-x-x-x-x-x-x-|
 F|--12--12--12-121212--15--15--151515-17--12--12--10--101010-7-7-7-7-7-8-8-8-|
Bb|---------------------------------------------------------------------------|

Outro: Guitar 3 (Acoustic) PLAY 4 TIMES (FADE OUT)
 C|---------------------------------------------------------------------------|
 G|--3--3----3--3--3----------------------------------------------------------|
Eb|--2--2----2--2--2----5--5----5--5--5-5--3--3----3--3--3-3--2--2----2--3--2-|
Bb|--0--0----0--0--0----3--3----3--3--3-3--3--3----3--3--3-3--3--3----3--3--3-|
 F|--0--0----0--0--0----3--3----3--3--3-3--1--1----1--1--1-1--0--0----0--0--0-|
Bb|--0--0----0--0--0----3--3----3--3--3-3-------------------------------------|

Finished!

comments
print report bad tab
21 comments total. Showing first comments.
+4 reply
Panhead09 wrote on February 22 2009, 01:04 pm

Excellent tab. It's perfect as far as I can tell, and I've played through it several times with the song. Thanks.

0 reply
U B the band wrote on February 22 2009, 01:34 pm

I've made an update in the verse but it wont show until tomorrow since UG doesn't update tabs on the weekends.

I'm going to put up a video of me playing it on youtube this week.

0 reply
Still Breath wrote on February 24 2009, 06:41 pm

This is excellent. Great job...

I want to post or [tab]
guest
You may want to rate the tab now too:
select rating
Please do not post tabs as comments. Select "correction" instead!