Oops, an error
Loading. Please wait.

Faceless Tab

version 1
version 1

Whole song

Interactive

Video

by RED
9,430 views 3 this week
11 commentsread comments
1 2 3 4 5
accurate
x 4
add to favorites
launch autoscroll
font size
0
reset
how to read this tab
guitar tuner
Autoscroll
slow
fast
+/-
esc
set tempo
stop
Help us to improve Ultimate-Guitar.com Take our survey!
×
Contributor
Difficulty
Tuning
intermediate
B F# B E G# C#
Song: Faceless
Band: RED
Album: Until We Have Faces
Drop B (B,F#,B, E,G#,C#)
Tabbed by JRedDisciple

A few notes - the second verse, second half is a bit weird, so it
may not be 100% perfect but its pretty close, also note that
in both verses the 0 s are not written to the rhythm so there may
be more or less 0 s than there are here....
Enjoy! Please rate and comment; tell me how I'm doing!

Intro (one time with background fuzz distortion)
C#------------------------------------------------------|
G#------------------------------------------------------|
E ------------------------------------------------------|
B ------------------------------------------------------|
F#------5-------------------------5---------------------|
B-0-0-0--0-7h8-0-5h7-3-0-3--0-0-0--0-7h8-7-0-10-8-7-8---|

Loud Intro
C#-------------------------------------------------------|
G#-------------------------------------------------------|
E -------------------------------------------------------|
B -------------------------------------------------------|
F#------5--------------------------5---------------------|
B-0-0-0--0-7h8-0-5h7-3-0-3---0-0-0--0-7h8-7-0-10-8-7-8---|

C#----------------------------------------------------------------------------|
G#----------------------------------------------------------------------------|
E ----------------------------------------------------------------------------|
B -----------------------------8--5-------------------------------------------|
F#---------5-------------------8--5-------------------------------------------|
B----0-0-0--0-7h8-5h7-3-0-3----8--5-------------------------------------------|

Verse 1  2x (1rst time in background fuzz, second full distortion)
C#--------------------------------------------------------------------------|
G#--------------------------------------------------------------------------|
E --------------------------------------------------------------------------|
B --------------------------------------------------------------------8--5--|
F#--------------------------------------------------------------------8--5--|
B-0-0-0-0-0-0-0-8p7h8-10-0-0-0-0-0-0-0-0-8p7h8-10-12\0-0-0-0-8p7h8-10-8--5--|
(A voice screaming from within, begging just to feel again...)

Pre-chorus
C#-------------------------------|
G#-------------------------------|
E -------------------------------|
B ---8--5--8---10----------------|
F#---8--5--8---10----------------|
B----8--5--8---10----------------|
(I abandonned this love, and laid it to rest...)

Chorus
C#----------------------------------|
G#----------------------------------|
E ---------5------------------------|
B ---0--3--5--5---------------------|     2x
F#---0--3--3--5---------------------|
B ---0--3-----5---------------------|
(I'm not , I'm not myself...)

Intro again

Verse 2
C#---------------------------------------------------------------|
G#---------------------------------------------------------------|
E ---------------------------------------------------------------|
B ---------------------------------------------------------------|
F#---------------------------------------------------------------|
B --0-0-0-0-0-0-0-8p7h8-10--0-0-0-0-0-0-8p7h8-10-12\-------------|

C#--------------------------------------------------|
G#--------------------------------------------------|
E --------------------------------------------------|
B --------------------------------8--5--------------|
F#--------------------------------8--5--------------|
B ----0-0-0-0-0-0-0-8p8\7h8-10----8--5--------------|

C#--------------------------------------------------------------------------|
G#--------------------------------------------------------------------------|
E --------------------------------------------------------------------------|
B --------------------------------------------------------------------------|
F#-----------------------5----------------------------------8p7-0-7p5-0-3-5-|
B--0-0-0----0---0--0-0-0---0-8p7h8-10-12\-0-0-8p7h8-10-8-7------------------|

Post-Chorus
C#----------------------------------|
G#----------------------------------|
E ----------------------------------|
B ----8---5---8----5-----8----10----|
F#----8---5---8----5-----8----10----|
B-----8---5---8----5-----8----10----|

Bridge
C#-----------------------------------------------------------------|
G#-----------------------------------------------------------------|
E -----------------------------------------------------------------|     2x
B -----------------------------------------------------------------|
F#----------5------5-4-0-4-3-0-1-0---------5------5-4-0-4-3-1-3----|
B-0-3-0-5-0---7-0------------------0-3-0-5----7-0------------------|
(Until we have FACES!!!) (Faceless!!!)
Chorus

Outro
                3x
C#-----------------------------|------------------------------|
G#-----------------------------|------------------------------|
E -----------------------------|------------------------------|
B -----------------------------|------------------------------|
F#-----------------------------|---------------54-4-3---------|
B-----0-3-0-5-0-0-0-8-7-8-10---|--0-3-0-5-0-0----------0-3-0--|

Finish
Suggest correction new What's this?
You can suggest a correction to this tab. Community and Mods will review your correction and vote to approve or reject it.
comments
print report bad tab
11 comments total. Showing first comments.
-2 reply
sumrandomhobo 761 wrote on February 22 2011, 03:49 pm

I tabbed this ages ago, but UG wouldn't accept it :(
Here's what I got for the second half of the second verse:

C#|--------------------|----------------------------|----------------------------------|------------------|
G#|--------------------|----------------------------|----------------------------------|------------------|
E |--------------------|----------------------------|----------------------------------|------------------|
B |--------------------|----------------------------|----------------------------------|-8-8-8-5-5-5-5-5--|
F#|--------------------|-------------5------1-0-1-3-|-5s---------------8-7-0-7-3-0-3-0-|-8-8-8-5-5-5-5-5--|
B |--0--0h3--0---0---0-|-0-0--0--0-0----0-0---------|-----0-3-0-10-8-0-----------------|-8-8-8-5-5-5-5-5--|
I'm pretty sure it's right :)
And for the bridge:

C#|------------------|----------------|-----------------|------------------|
G#|------------------|----------------|-----------------|------------------|
E |------------------|----------------|-----------------|------------------|
B |------------------|----------------|-----------------|------------------|
F#|--------5---6p5---|-5p4--4p3---1h3-|-------5---6p5---|-5p4---4p9---1h4--|
B |--0-3-0---0-----0-|----0-----0-----|-0-3-0---0-----0-|-----0-----0------|
Not 100% on that though.

0 reply
sumrandomhobo 761 wrote on February 22 2011, 03:51 pm

Oh sorry that 4p9 in the last bar of the bridge riff is supposed to be 4p3 :L

0 reply
I Rock 4 God 166 wrote on February 22 2011, 05:18 pm

uh, sumrandomhobo... If it wasn't accepted, that means it's wrong...

I want to post or [tab]
guest
You may want to rate the tab now too:
select rating
Please do not post tabs as comments. Select "correction" instead!