Oops, an error
Loading. Please wait.

Faceless Tab

version 2
version 2

Whole song

Interactive

Video

by RED
11,924 views 24 this week
11 commentsread comments
1 2 3 4 5
excellent!
x 16
add to favorites
launch autoscroll
font size
0
reset
how to read this tab
guitar tuner
Autoscroll
slow
fast
+/-
esc
set tempo
stop
Help us to improve Ultimate-Guitar.com Take our survey!
×
Author
Band: Red
Song: Faceless
Album: Until We Have Faces
Tuning: Drop B: B F# B E G# C#

Key: /   Slide Up     ~   Hold out note     p   pull off     \   Slide Down
    (0)  Very silent palm mute
     .
Amazing song by an amazing band.  Hopefully this tab helps you out and it should 
because this is exactly the way Anthony plays it.  
Keep rocking and God Bless!

 Intro 1. This is before it gets heavier.
|----------------------------------------------------------|
|----------------------------------------------------------|
|-------7---------------------------7----------------------|
|----------------------------------------------------------|
|-0--0--5-0--8--5-0-7--0-3h5-0-0-0--5-0--8--7-0-10--0-8/11-|
|-0--0----0--8--5-0-7--0-3h5-0-0-0----0--8--7-0-10--0-8/11-|
                                                        
 Intro 2.                   x2    Play this 1st time, not 2nd  x1
|-----------------------------|-------------------------------|
|-----------------------------|-------------------------------|
|--------7--------------------|--------7----------------------|
|-0-0-0----0--8--5-0-7--0-3h5-|-0-0-0----0--8--7-0-10--0-8/11-|
|-0-0-0--5-0--8--5-0-7--0-3h5-|-0-0-0--5-0--8--7-0-10--0-8/11-|
|-0-0-0----0--8--5-0-7--0-3h5-|-0-0-0----0--8--7-0-10--0-8/11-|
 Do THIS second time
|-----------------------------------|
|-----------------------------------|
|-----------------------------------|
|-8--8-8-8-8-8-8-5--5-5-5-5-5-5-0~~-|Hold this last note into Verse 1
|-8--8-8-8-8-8-8-5--5-5-5-5-5-5-0~~-|
|-8--8-8-8-8-8-8-5--5-5-5-5-5-5-0~~-|

Verse 1
|---------------------------------------------------------------------------|
|---------------------------------------------------------------------------|
|---------------------------------------------------------------------------|
|---------------------------------------------------------------------------|
|---------------------------------------------------------------------------|
|-0--0--0-0(0)-8p0-7-10-0--0-0--0--0--0-0(0)-8p0-7-10-12\-0-0--0--0--0-0(0)-|
            .                             .                              . 
|------------------------------------------------------------------|
|------------------------------------------------------------------|
|----------10--1010107---7-----------------------------------------|
|----------8---8-8-8-5---5-----------------------------------------|
|----------8---8-8-8-5---5-----------------------------------------|
|-8p0-7-10-8---8-8-8-5---5--3p0-3-5-0--0-0--0--0--0-0(0)--8p0-7-10-|
                                                      .
|---------------------------------------------------------------|
|---------------------------------------------------------------|
|---------------------------------------------------------------|
|---------------------------------------------------------------|
|---------------------------------------------------------------|
|-0--0-0--0--0--0-0(0)--8p0-7-10-12\-0-0--0--0--0-0(0)-8p0-7-10-|
                    .                               .
|------------------------------|
|------------------------------|
|-10---10-10-10-7---7----------|
|-8----8--8--8--5---5----------|
|-8----8--8--8--5---5----------|
|-8----8--8--8--5---5--3p0-3-5-|

Pre-Chorus
|----------------------------------------------------------------------|
|----------------------------------------------------------------------|
|-10--101010-10-1010-10107---7-7-7--7--7-7--7-7-10--101010-10-1010-1010|
|-8---8-8-8--8--8-8--8-8-5---5-5-5--5--5-5--5-5-8---8-8-8--8--8-8--8-8-|
|-8---8-8-8--8--8-8--8-8-5---5-5-5--5--5-5--5-5-8---8-8-8--8--8-8--8-8-|
|-8---8-8-8--8--8-8--8-8-5---5-5-5--5--5-5--5-5-8---8-8-8--8--8-8--8-8-|

|---------------------------------|
|---------------------------------|
|-12---12-12-12--12--12-12--12-12-|
|-10---10-10-10--10--10-10--10-10-|
|-10---10-10-10--10--10-10--10-10-|
|-10---10-10-10--10--10-10--10-10-|

Chorus 1 Play all this x2
|-----------------------------------------------------------------|
|-----------------------------------------------------------------|
|-----------------------------------------------------------------|
|-3-3-3-3-3-3-3-3-3-3-3-3-3-3-3-3-3-3-3-3-3-3-7-7-7-7-7-7-7-7-7-7-|
|-0-0-0-0-0-0-0-0-0-0-0-0-0-0-0-0-3-3-3-3-3-3-3-3-3-3-3-3-3-3-3-3-|
|-0-0-0-0-0-0-0-0-0-0-0-0-0-0-0-0-3-3-3-3-3-3-3-3-3-3-3-3-3-3-3-3-|

|-----------------------------------------------------------------|
|-----------------------------------------------------------------|
|-5-5-5-5-5-5-5-5-5-5-5-5-5-5-5-5---------------------------------|
|-5-5-5-5-5-5-5-5-5-5-5-5-5-5-5-5-5-5-5-5-5-5-8-8-8-8-8-8-8-8-8-8-|
|-3-3-3-3-3-3-3-3-3-3-3-3-3-3-3-3-5-5-5-5-5-5-5-5-5-5-5-5-5-5-5-5-|
|---------------------------------5-5-5-5-5-5-5-5-5-5-5-5-5-5-5-5-|

Now go back to intro 2. and play it once

Verse 2
|---------------------------------------------------------------------------|
|---------------------------------------------------------------------------|
|---------------------------------------------------------------------------|
|---------------------------------------------------------------------------|
|---------------------------------------------------------------------------|
|-0--0--0-0(0)-8p0-7-10-0--0-0--0--0--0-0(0)-8p0-7-10-12\-0-0--0--0--0-0(0)-|
            .                             .                              .
|----------------------------------------------------------------|
|----------------------------------------------------------------|
|----------10---10-10-10-7---7-----------------------------------|
|----------8----8--8--8--5---5-----------------------------------|
|----------8----8--8--8--5---5-----------------------------------|
|-8p0-7-10-8----8--8--8--5---5--3p0-3-5--------------------------|

|----------------------------------------------------------------|
|----------------------------------------------------------------|
|-----------------------------------7----------------------------|
|----------------------------------------------------------------|
|-----------------------------------5----------------------------|
|-0--0-0--0-----0---0---0-0--0--0-0----0-0--8p0-7-10-12\---------|

This part's fast and tricky but REAllY fun once you get it down.
|------------------------------------------------------------------|
|------------------------------------------------------------------|
|-------------------------------10---10-10-10-7---7----------------|
|-------------------------------8----8--8--8--5---5----------------|
|-------5-----8-7----7\5--------8----8--8--8--5---5----------------|
|-0-5-0---7-0-----10-----8-7-10-8----8--8--8--5---5--3p0-3-5-------|

Pre-Chorus 2 same as the first

Chorus 2 same as the first

Bridge
|------------------------------------------------------------------|
|------------------------------------------------------------------|
|-7-7-7-7-7-7-7-7-7-7-7-7-7-7-7-7-10101010101010101010101010101010-|
|-7-7-7-7-7-7-7-7-7-7-7-7-7-7-7-7-10101010101010101010101010101010-|
|-5-5-5-5-5-5-5-5-5-5-5-5-5-5-5-5-8-8-8-8-8-8-8-8-8-8-8-8-8-8-8-8--|
|------------------------------------------------------------------|
 
|---------------------------------------------------------------------------|
|---------------------------------------------------------------------------|
|-9-9-9-9-9-9-------------------------------7-7-7-7-7-7-7-7-7-7-7-7-7-7-7-7-|
|-9-9-9-9-9-9-10-10-10-10-10-10-10-10-10-10-5-5-5-5-5-5-5-5-5-5-5-5-5-5-5-5-|
|-7-7-7-7-7-7-10-10-10-10-10-10-10-10-10-10-5-5-5-5-5-5-5-5-5-5-5-5-5-5-5-5-|
|-------------10-10-10-10-10-10-10-10-10-10-5-5-5-5-5-5-5-5-5-5-5-5-5-5-5-5-|
          
Long Pause
|----|-----------------------|---------------------------------------|
|----|-----------------------|---------------------------------------|
|----|-----------------------|---------------------------------------|
|----|-----------------------|---------------------------------------|
|----|-----------------------|-----------5---------------------------|
|----|-12-11-0-11-10-0-10-13-|-0-3-0-5-0---7-0-12-11-0-11-10-0-8-10--|
                             |   Play above then below and repeat
                             |---------------------------------------|
                             |---------------------------------------|
                             |---------------------------------------|
                             |---------------------------------------|
                             |-----------5---------------------------|
                             |-0-3-0-5-0---7-0-12-11-0-11-10-0-10-13-|

Chorus 3 same as first 2

Outro
|-----------------------------------------------------------|
|-----------------------------------------------------------|
|-----------------------------------------------------------|
|-0-3-0-5--0--0--0-0-----------0-3-0-5--0--0--0-0-----------|
|-0-3-0-5--0--0--0-0--8-0-7-10-0-3-0-5--0--0--0-0--8-0-7-11-|
|-0-3-0-5--0--0--0-0--8-0-7-10-0-3-0-5--0--0--0-0--8-0-7-11-|

|------------------------------------------------------------------|
|------------------------------------------------------------------|
|------------------------------------------------------------------|
|-0-3-0-5--0--0--0-0-----------0-3-0-5--0--0-----------------------|
|-0-3-0-5--0--0--0-0--8-0-7-10-0-3-0-5--0--0-12-11-0-11-10-0-10-13-|
|-0-3-0-5--0--0--0-0--8-0-7-10-0-3-0-5--0--0-12-11-0-11-10-0-10-13-|

That's it! Please rate and comment!
Suggest correction
comments
print report bad tab
11 comments total. Showing first comments.
+1 reply
sumrandomhobo 534 wrote on April 8 2011, 11:36 pm

Haven't actually tried it, but it looks pretty legit. Close to what Anthony played on that video :)

0 reply
aLEC dICKSON 350 wrote on April 11 2011, 08:03 pm

cool! that's what i was goin for haha

0 reply
hockeynut9 30 wrote on April 21 2011, 09:50 pm

Very nice, I like it. It's really fun to play too. 2 thumbs up man.

guest
You may want to rate the tab now too:
select rating
Please do not post tabs as comments. Select "correction" instead!