Oops, an error
Loading. Please wait.

Fight Inside Bass Tab

version 1
version 1

Whole song

Interactive

by RED
4,300 views 1 this week
3 commentsread comments
1 2 3 4 5
accurate
x 5
add to favorites
launch autoscroll
font size
0
reset
guitar tuner
Autoscroll
slow
fast
+/-
esc
set tempo
stop
Help us to improve Ultimate-Guitar.com Take our survey!
×
Fight Inside
RED
Innocence & Instict

So, basically, you just follow the guitar parts

Intro
G--------------------------------------------------|
D--------------------------------------------------|
A----------------------------2/4-------------------|
E-----------4/6----0-----0--------------------4/6--|
B-4-0-2h4-0------0---0-2---0------0-4-0-2h4-0------|

G---------------------------------------------------|
D---------------------------------------------------|
A-----------------------------------------------2/4-|
E---------0---7/4/6------------4/6----0-----0-------|
B-0-5-0-2---0--------4-0-2h4-0------0---0-2---0-----|

G----------------------------------|
D----------------------------------|
A----------------------------------|
E-----------4/6----0-----0---7/4/6-|
B-4-0-2h4-0------0---0-2---0-------|

Verse (dont play until he sings "what i fear")
G-------------|
D-------------|
A-------------| x2
E-------------|
B-0~-2~-7~-4~-|

Chorus
G------------------------------------|
D------------------------------------|
A------------------------------------|
E------------------------------------|
B-0—0-0-0--2-2-2-2--7-7-7-7--4-4-4-4-|

G------------------------------------|
D------------------------------------|
A------------------------------------|
E------------------------------------|
B-0-0-0-0--2-2-2-2--7-7-7-7--9-9-9-9-|

Post-Chorus
G---------------------------------------------------------------------|
D---------------------------------------------------------------------|
A----------------------------2/4--------------------------------------|
E-----------4/6----0-----0--------------------4/6-----------0---7/4/6-|
B-4-0-2h4-0------0---0-2---0------0-4-0-2h4-0-------0-5-0-2---0-------|

Verse

Chorus x2

Bridge
G---------------------------------------------|
D---------------------------------------------|
A---------------------------------------------|
E---------------------------------------------|
B-0-0-----0-0-----0-0-----0-0-----0-0-----0-0-|

G---------------------------------|
D---------------------------------|
A---------------------------------| x4
E---------------------------------|
B-2-0-0-6-4-0-0-2-3-0-0-7-3-0-0-3-|

Chorus x2

G---------------------------------|
D---------------------------------|
A---------------------------------| x2
E---------------------------------|
B-2-0-0-6-4-0-0-2-3-0-0-7-3-0-0-3-|

Intro x1
Suggest correction
comments
print report bad tab
3 comments total.
-1 reply
EvilAngel93 263 wrote on March 28 2009, 01:09 am

sweet

0 reply
aaron_masta 40 wrote on November 26 2009, 10:33 am

looks and sounds good to me. :)

0 reply
TheBassMeister 140 wrote on July 27 2013, 09:18 am

Great tab! I personally find it easier to play the intro riff like this:


G|---------------------------------------------------------------------|
D|---------------------------------------------------------------------|
A|----------------------------2/4--------------------------------------|
E|-----------4/6-------------------------------4/6-----------0---7/4/6-|
B|-4-0-2h4-0------0-5-0-2-5-0------0-4-0-2h4-0-------0-5-0-2---0-------|

guest
You may want to rate the tab now too:
select rating
Wanna post a correction for this tab? Suggest correction