Oops, an error
Loading. Please wait.

Forever Tab

version 1
version 1

Whole song

Interactive

by RED
6,093 views 24 this week
7 commentsread comments
1 2 3 4 5
accurate
x 3
add to favorites
launch autoscroll
font size
0
reset
how to read this tab
guitar tuner
Tab Pro tools
  • play this tab
  • loop segment
  • change instrument
  • show fretboard
  • metronome
Autoscroll
slow
fast
+/-
esc
set tempo
stop
Contributor
Song: Forever
Artist: Red
Album: Innocence And Instinct (Deluxe Edition)

Drop A tuning... but I've had a few comments saying its in drop Bb. I can't be 
bothered tuning my guitar down to double check, so if drop A doesn't work, try drop Bb =]


Please, comment, rate and correct.

Key:
Slide             s
Pull Off        p
Palm Mute   *

======GUITAR=1======

  Intro (0:00)
 B|-------------------|-------------------|
F#|-------------------|-------------------|
 D|-------------------|-------------------|
 A|--4447774446662222-|-4447774446660000--|
 E|--4447774446662222-|-4447774446660000--| 
 A|--4447774446662222-|-4447774446660000--|

 B|-------------------|-----------------------|
F#|-------------------|-----------------------|
 D|-------------------|-----------------------|
 A|--4447774446662222-|-0000000000-7p0-6p4-0--|
 E|--4447774446662222-|-0000000000-7p0-6p4-0--|
 A|--4447774446662222-|-0000000000-7p0-6p4-0--|

  Verse 1 (0:11) Guitar 1 Silent

  Pre-Chorus (0:35)  
 B|-------|---------|---------|----------|
F#|-------|---------|---------|----------|
 D|-------|---------|---------|----------|
 A|--xxxx-|-0-0-0-0-|-2-2-2-2-|-4-4-4-4--|
 E|--xxxx-|-0-0-0-0-|-2-2-2-2-|-4-4-4-4--|
 A|--xxxx-|-0-0-0-0-|-2-2-2-2-|-4-4-4-4--|
 
 B|----------|---------|----------|
F#|----------|---------|----------|
 D|----------|---------|----------|
 A|--6-6-7-7-|-0-0-0-0-|-2-2-2-2--|
 E|--7-7-7-7-|-0-0-0-0-|-2-2-2-2--|
 A|--6-6-7-7-|-0-0-0-0-|-2-2-2-2--|

  1st Chorus (0:52)
 B|--------------------|-------------------====--|
F#|--------------------|-------------------=x3=--|
 D|--4-4-4-44-7-7-7-77-|-2-2-2-22----------====--|
 A|--4-4-4-44-7-7-7-77-|-2-2-2-22-2-2-2-22-------|
 E|--2-2-2-22-5-5-5-55-|-0-0-0-00-2-2-2-22-------|
 A|--------------------|----------2-2-2-22-------|

 B|--------------------|-------------------|-----|
F#|--------------------|-------------------|-----|
 D|--4-4-4-44-7-7-7-77-|-2-2-2-22----------|-----|
 A|--4-4-4-44-7-7-7-77-|-2-2-2-22-6-6-6-66-|-6~--|
 E|--2-2-2-22-5-5-5-55-|-0-0-0-00-7-7-7-77-|-7~--|
 A|--------------------|----------6-6-6-66-|-6~--|

  Post-chorus (1:17) (Same as intro)

  Verse 2 (1:29) Guitar 1 Silent

  Repeat Pre-chorus (1:52)

  2nd Chorus (2:10)
 B|--------------------|-------------------====--|
F#|--------------------|-------------------=x4=--|
 D|--4-4-4-44-7-7-7-77-|-2-2-2-22----------====--|
 A|--4-4-4-44-7-7-7-77-|-2-2-2-22-2-2-2-22-------|
 E|--2-2-2-22-5-5-5-55-|-0-0-0-00-2-2-2-22-------|
 A|--------------------|----------2-2-2-22-------|

  Bridge (2:33) 
 B|----------|---------====--|
F#|----------|---------=x3=--|
 D|----------|---------====--|
 A|--0-0-0-0-|-7-7-6-6-------|
 E|--0-0-0-0-|-7-7-7-7-------|
 A|--0-0-0-0-|-7-7-6-6-------|

 B|----------|-----|
F#|----------|-----|
 D|----------|-----|
 A|--0-0-0-0-|-2~--|
 E|--0-0-0-0-|-2~--|
 A|--0-0-0-0-|-2~--|

  Repeat 1st Chorus (2:57)

  Outro (3:22) Same as Intro 


======GUITAR=2====== 

Intro (0:00)
 B|-------------------|-------------------|
F#|-------------------|-------------------|
 D|-------------------|-------------------|
 A|--4447774446662222-|-4447774446660000--|
 E|--4447774446662222-|-4447774446660000--| 
 A|--4447774446662222-|-4447774446660000--|

 B|-------------------|-----------------------|
F#|-------------------|-----------------------|
 D|-------------------|-----------------------|
 A|--4447774446662222-|-0000000000-7p0-6p4-0--|
 E|--4447774446662222-|-0000000000-7p0-6p4-0--|
 A|--4447774446662222-|-0000000000-7p0-6p4-0--|

  Verse (0:11)
 B|-------------------|------------====---|
F#|-------------------|------------=x4=---|
 D|-------------------|------------====---|
 A|--4444-667-444-667-|-2222-667-222-667--|
 E|-------------------|-------------------|
 A|-------------------|-------------------|
     **** *** *** ***   **** *** *** ***  

 Pre-Chorus (0:35)  
 B|---------|---------|----------|
F#|---------|---------|----------|
 D|---------|---------|----------|
 A|-0-0-0-0-|-2-2-2-2-|-4-4-4-4--|
 E|-0-0-0-0-|-2-2-2-2-|-4-4-4-4--|
 A|-0-0-0-0-|-2-2-2-2-|-4-4-4-4--|
 
 B|----------|---------|----------|
F#|----------|---------|----------|
 D|----------|---------|----------|
 A|--6-6-7-7-|-0-0-0-0-|-2-2-2-2--|
 E|--7-7-7-7-|-0-0-0-0-|-2-2-2-2--|
 A|--6-6-7-7-|-0-0-0-0-|-2-2-2-2--|

1st Chorus (0:52)
 B|--------------------|-------------------====--|
F#|--------------------|-------------------=x3=--|
 D|--4-4-4-44-7-7-7-77-|-2-2-2-22----------====--|
 A|--4-4-4-44-7-7-7-77-|-2-2-2-22-2-2-2-22-------|
 E|--2-2-2-22-5-5-5-55-|-0-0-0-00-2-2-2-22-------|
 A|--------------------|----------2-2-2-22-------|

 B|--------------------|-------------------|-----|
F#|--------------------|-------------------|-----|
 D|--4-4-4-44-7-7-7-77-|-2-2-2-22----------|-----|
 A|--4-4-4-44-7-7-7-77-|-2-2-2-22-6-6-6-66-|-6~--|
 E|--2-2-2-22-5-5-5-55-|-0-0-0-00-7-7-7-77-|-7~--|
 A|--------------------|----------6-6-6-66-|-6~--|

  Post-chorus (1:17)
 B|--14-14-14-9-9-9-10-10-10-9-9-9-7-7-9-9--|
F#|-----------------------------------------|
 D|-----------------------------------------|
 A|-----------------------------------------|
 E|-----------------------------------------|
 A|-----------------------------------------|

 B|--14-14-14-9-9-9-10-10-10-9-9-9-7~--|
F#|------------------------------------|
 D|------------------------------------|
 A|------------------------------------|
 E|------------------------------------|
 A|------------------------------------|

 B|--14-14-14-9-9-9-10-10-10-9-9-9-7-7-9-9--|
F#|-----------------------------------------|
 D|-----------------------------------------|
 A|-----------------------------------------|
 E|-----------------------------------------|
 A|-----------------------------------------|

 B|--14-14-14-9-9-9-10-10-10-9-9-9-14~--|
F#|-------------------------------------|
 D|-------------------------------------|
 A|-------------------------------------|
 E|-------------------------------------|
 A|-------------------------------------|

Repeat Verse (1:29)

Repeat Pre-Chorus (1:52)

2nd Chorus (2:10)
 B|--------------------|-------------------====--|
F#|--------------------|-------------------=x4=--|
 D|--4-4-4-44-7-7-7-77-|-2-2-2-22----------====--|
 A|--4-4-4-44-7-7-7-77-|-2-2-2-22-2-2-2-22-------|
 E|--2-2-2-22-5-5-5-55-|-0-0-0-00-2-2-2-22-------|
 A|--------------------|----------2-2-2-22-------|

Bridge (2:33) 
 B|----------|---------====--|
F#|----------|---------=x3=--|
 D|----------|---------====--|
 A|--0-0-0-0-|-7-7-6-6-------|
 E|--0-0-0-0-|-7-7-7-7-------|
 A|--0-0-0-0-|-7-7-6-6-------|

 B|----------|-----|
F#|----------|-----|
 D|----------|-----|
 A|--0-0-0-0-|-2~--|
 E|--0-0-0-0-|-2~--|
 A|--0-0-0-0-|-2~--|

Repeat 1st Chorus (2:57)

Outro (3:22) Same as Post-chorus

comments
We did not receive enough feedback on this tab! Please rate:
print report bad tab
1 2 3 4 5
7 comments total. Showing first comments.
0 reply
aaronbob13 wrote on April 30 2009, 07:16 pm

this tab looks pretty good but are you sure its in drop A?

0 reply
sumrandomhobo wrote on May 1 2009, 08:07 pm

Yeah, I'm pretty sure. It's kinda annoying though, I only have an acoustic and the strings rattle like crazy.

0 reply
Ph0bia wrote on May 7 2009, 05:01 pm

Pretty sure the entire album was recorded in Drop Bb. I haven't tried this, so this may be an exception.

I want to post or [tab]
guest
You may want to rate the tab now too:
select rating
Please do not post tabs as comments. Select "correction" instead!