Oops, an error
Loading. Please wait.

Hide Tab

version 1
version 1

Acoustic

  • This is the End of Silence 10th Anniversary Edition recording.

Whole song

Interactive

by RED
58 views 3 this week
no commentswrite comment
1 2 3 4 5
3 more votes to show rating
add to favorites
launch autoscroll
font size
0
reset
how to read this tab
guitar tuner
Autoscroll
slow
fast
+/-
esc
set tempo
stop
Help us to improve Ultimate-Guitar.com Take our survey!
×
Author
Difficulty
Tuning
novice
C# G# C# F# A# D#
About this tab version
This is the End of Silence 10th Anniversary Edition recording. Was this info helpful? Yes No
[Intro]

D#|-------------------------------------------------------------------------|
A#|-------------------------------------------------------------------------|
F#|--------------------------10--------------------------------- 12---------|
C#|--0-0-0----3-3-3----8-8-8-8--8-8---0-0-0----3-3-3----10-10-10-10-10-10---|
G#|--0-0-0----3-3-3----8-8-8-8--8-8---0-0-0----3-3-3----10-10-10-10-10-10---|
C#|--0-0-0----3-3-3----8-8-8-8--8-8---0-0-0----3-3-3----10-10-10-10-10-10---|

D#|-------------------------------------------------------------------------|
A#|-------------------------------------------------------------------------|
F#|--------------------------10----------------------------------12---------|
C#|--0-0-0----3-3-3----8-8-8-8--8-8---0-0-0----3-3-3----10-10-10-10-10-10---|
G#|--0-0-0----3-3-3----8-8-8-8--8-8---0-0-0----3-3-3----10-10-10-10-10-10---|
C#|--0-0-0----3-3-3----8-8-8-8--8-8---0-0-0----3-3-3----10-10-10-10-10-10---|


[Verse]

D#|--------------------------------------------------------------|
A#|--------------------------------------------------------------|
F#|----------------------------------------------------12--------|
C#|----------------------------------------------------10-10-----|
G#|----------------------------------------------------10-10-----|
C#|--0--0-0--3--3-3--8-8-8-7-8-7-8-7-5--0-0-0--3--3-3--10-10-----|


D#|----------------------------------------------------------------|
A#|----------------------------------------------------------------|
F#|-----------------------------------------------------12-12------|
C#|-----------------------------------------------------10-10-x----|
G#|-----------------------------------------------------10-10-x----|
C#|--0--0-0--3--3-3--8-8-8-7-8-7-8-7-5--0-0-0--3--3-3-- 10-10-x----|


[Chorus]

D#|----------------------------------------------|
A#|-----------------3----------------------------|
F#|--10-10-10-------2----5-5-5--7-7-7------------|
C#|--8--8--8--0-0-0-0-0--3-3-3--5-5-5------------|
G#|--8--8--8--0-0-0-0-0--3-3-3--5-5-5------------|
C#|--8--8--8--0-0-0-0-0--3-3-3--5-5-5------------|

D#|----------------------------------------------|
A#|-----------------3----------------------------|
F#|--10-10-10-------2----12--12--12--7-7-7-------|
C#|--8--8--8--0-0-0-0-0--10--10--10--5-5-5-------|
G#|--8--8--8--0-0-0-0-0--10--10--10--5-5-5-------|
C#|--8--8--8--0-0-0-0-0--10--10--10--5-5-5-------|


[Intro]

D#|-------------------------------------------------------------------------|
A#|-------------------------------------------------------------------------|
F#|--------------------------10--------------------------------- 12---------|
C#|--0-0-0----3-3-3----8-8-8-8--8-8---0-0-0----3-3-3----10-10-10-10-10-10---|
G#|--0-0-0----3-3-3----8-8-8-8--8-8---0-0-0----3-3-3----10-10-10-10-10-10---|
C#|--0-0-0----3-3-3----8-8-8-8--8-8---0-0-0----3-3-3----10-10-10-10-10-10---|

D#|-------------------------------------------------------------------------|
A#|-------------------------------------------------------------------------|
F#|--------------------------10----------------------------------12---------|
C#|--0-0-0----3-3-3----8-8-8-8--8-8---0-0-0----3-3-3----10-10-10-10-10-10---|
G#|--0-0-0----3-3-3----8-8-8-8--8-8---0-0-0----3-3-3----10-10-10-10-10-10---|
C#|--0-0-0----3-3-3----8-8-8-8--8-8---0-0-0----3-3-3----10-10-10-10-10-10---|


[Verse]

D#|--------------------------------------------------------------|
A#|--------------------------------------------------------------|
F#|----------------------------------------------------12--------|
C#|----------------------------------------------------10-10-----|
G#|----------------------------------------------------10-10-----|
C#|--0--0-0--3--3-3--8-8-8-7-8-7-8-7-5--0-0-0--3--3-3--10-10-----|


D#|----------------------------------------------------------------|
A#|----------------------------------------------------------------|
F#|-----------------------------------------------------12-12------|
C#|-----------------------------------------------------10-10-x----|
G#|-----------------------------------------------------10-10-x----|
C#|--0--0-0--3--3-3--8-8-8-7-8-7-8-7-5--0-0-0--3--3-3-- 10-10-x----|


[Chorus]

D#|----------------------------------------------|
A#|-----------------3----------------------------|
F#|--10-10-10-------2----5-5-5--7-7-7------------|
C#|--8--8--8--0-0-0-0-0--3-3-3--5-5-5------------|
G#|--8--8--8--0-0-0-0-0--3-3-3--5-5-5------------|
C#|--8--8--8--0-0-0-0-0--3-3-3--5-5-5------------|

D#|----------------------------------------------|
A#|-----------------3----------------------------|
F#|--10-10-10-------2----12--12--12--7-7-7-------|
C#|--8--8--8--0-0-0-0-0--10--10--10--5-5-5-------|
G#|--8--8--8--0-0-0-0-0--10--10--10--5-5-5-------|
C#|--8--8--8--0-0-0-0-0--10--10--10--5-5-5-------|

[Bridge/Outro]

D#|----------------------------------------------------------------------|
A#|------------------------------------------------3---------------------|
F#|---------------------10-10-10-------------------2---------------------|
C#|--0--0-0--0-1-0-0-x--8--8--8--3-3-3--5-5-5--0-0-0-0--1-1--3-3-3-3-----|
G#|--0--0-0--0-1-0-0-x--8--8--8--3-3-3--5-5-5--0-0-0-0--1-1--3-3-3-3-----|
C#|--0--0-0--0-1-0-0-x--8--8--8--3-3-3--5-5-5--0-0-0-0--1-1--3-3-3-3-----|
(Repeat this from the quiet part to the final chorus. Then play the chorus again, leading to the outro)

D#|------------------------------------------------------------------------------------------|
A#|------------------------------------------------------------------------------------------|
F#|-----------3-3---------------5-5---------------7-7---------------9-9----------------------|
C#|-----------x-x-(x6)----------x-x-(x6)----------x-x-(x6)----------x-x-(x6)-0--0-0--0-1-0-0-|
G#|--0--0--0--1-1------0--0--0--3-3------0--0--0--5-5------0--0--0--7-7------0--0-0--0-1-0-0-|
C#|--0--0--0-----------0--0--0-----------0--0--0-----------0--0--0-----------0--0-0--0-1-0-0-|


************************************

| x   Dead note

************************************
Suggest correction
Give kudos to tab author, rate the tab!
1 2 3 4 5
comments
print report bad tab
guest
You may want to rate the tab now too:
select rating
Wanna post a correction for this tab? Suggest correction