Oops, an error
Loading. Please wait.

Hide bass

version 1
version 1

Whole song

Interactive

by RED
371 views 6 this week
no commentswrite comment
1 2 3 4 5
2 more votes to show rating
add to favorites
×
Save as Personal and add changes to this tab that will be seen only by you. Learn more ›
×
You can save this tab as Personal to edit and correct it or add notes. All changes will be seen only by you. Learn more »
launch autoscroll
font size
0
reset
guitar tuner
edit
Autoscroll
slow
fast
+/-
esc
set tempo
stop
Hide by RED Bass Tab

Tabbed by TheBassMeister

SONG: Hide
ARTIST: RED
ALBUM: End of Silence
TUNING: Drop C# (aka Drop Db)

Tuning Note: 4-string bass guitars just tune down to C# A D G, but I don't know the exact tuning
             for 5-string basses.  Since all you use is the C# string, I just tune the B string up
             to C# and leave the other strings in standard.  If you know the right tuning for 
             5-string bass, let me know.

Hammer on = h
Pull off = p


INTRO - Wait for the soft distorted guitar to loop its riff twice.

G |---------------------------------|
D |---------------------------------|
A |---------------------------------|
E |---------------------------------|
C#|-0---3---8-------0---3--10-------| x3


VERSE 1

G |---------------------------------|
D |---------------------------------|
A |---------------------------------|
E |---------------------------------|
C#|-0---3---8-------0---3--10-------| x3

G |----------------------------|
D |----------------------------|
A |----------------------------|
E |----------------------------|
C#|-0---3---8-------0---3--10/0|


CHORUS 1

G |------------------------------------------------|
D |------------------------------------------------|
A |------------------------------------------------|
E |------------------------------------------------|
C#|-8-8-8-8-8-8-0-0-0-0-0-0-3-3-3-3-3-3-5-5-5-5-5-5|

G |------------------------------------------------------|
D |------------------------------------------------------|
A |------------------------------------------------------|
E |------------------------------------------------------|
C#|-8-8-8-8-8-8-0-0-0-0-0-0-10-10-10-10-10-10-5-5-5-5-5-5|


POST CHORUS 1

G |---------------------------------|
D |---------------------------------|
A |---------------------------------|
E |---------------------------------|
C#|-0---3---8-------0---3--10-------|


VERSE 2

G |---------------------------------|
D |---------------------------------|
A |---------------------------------|
E |---------------------------------|
C#|-0---3---8-------0---3--10-------| x3

G |----------------------------|
D |----------------------------|
A |----------------------------|
E |----------------------------|
C#|-0---3---8-------0---3--10/0|


CHORUS 2

G |------------------------------------------------|
D |------------------------------------------------|
A |------------------------------------------------|
E |------------------------------------------------|
C#|-8-8-8-8-8-8-0-0-0-0-0-0-3-3-3-3-3-3-5-5-5-5-5-5|

G |------------------------------------------------------|
D |------------------------------------------------------|
A |------------------------------------------------------|
E |------------------------------------------------------|
C#|-8-8-8-8-8-8-0-0-0-0-0-0-10-10-10-10-10-10-5-5-5-5-5-5| x2


INTERLUDE

G |-------------------------------------------------------|
D |-------------------------------------------------------|
A |-------------------------------------------------------|
E |-------------------------------------------------------|
C#|-0-0--0--0h1p0-0--0-------0-0--0--0h1p0-0--0-------xxxx|

G |--------------------------------------------|
D |--------------------------------------------|
A |--------------------------------------------|
E |--------------------------------- ----------|
C#|-0-0--0--0h1p0-0--0-------0-0--0--0h1p0-0--0|


BRIDGE - Wait until guitar plays riff twice.

G |---------------------|
D |---------------------|
A |---------------------|
E |---------------------|
C#|-8---0-h3--5--0------| x4

G |-------------------------|
D |-------------------------|
A |-------------------------|
E |-------------------------|
C#|-8---0-h3--5--0---5-0-3-0|

G |---------------------|
D |---------------------|
A |---------------------|
E |---------------------|
C#|-8---0-h3--5--3--5---|


CHORUS 3

G |------------------------------------------------|
D |------------------------------------------------|
A |------------------------------------------------|
E |------------------------------------------------|
C#|-8-8-8-8-8-8-0-0-0-0-0-0-3-3-3-3-3-3-5-5-5-5-5-5|

G |------------------------------------------------------|
D |------------------------------------------------------|
A |------------------------------------------------------|
E |------------------------------------------------------|
C#|-8-8-8-8-8-8-0-0-0-0-0-0-10-10-10-10-10-10-5-5-5-5-5-5|


OUTRO

G |-----------------------------------------------|
D |-----------------------------------------------|
A |-----------------------------------------------|
E |-----------------------------------------------|
C#|-0-0--0-0--88888888--0-0--0-0--1010101010101010| x6

G |------------------|
D |------------------|
A |------------------|
E |------------------|
C#|-0-0--0--0h1p0-0--|

Fade to piano solo.

END
Suggest correction
Creating personal tab
Creating personal tab
You can edit any tab online and save it as your Personal.

You can edit, replace or remove any tab part or add personal notes – all changes will be seen only by you.

Personal tabs can be accessed anytime from any device, even offline.
Learn more »
Give kudos to tab author, rate the tab!
1 2 3 4 5
comments
print report bad tab
guest
You may want to rate the tab now too:
select rating
Wanna post a correction for this tab? Suggest correction