Oops, an error
Loading. Please wait.

Let Go Bass Tab

version 1
version 1

Whole song

Interactive

by RED
3,652 views 6 this week
1 commentread comment
1 2 3 4 5
x 4
add to favorites
launch autoscroll
font size
0
reset
guitar tuner
Autoscroll
slow
fast
+/-
esc
set tempo
stop
Help us to improve Ultimate-Guitar.com Take our survey!
×
Author
Song:Let Go
Band:RED

Tabbed By:evilangel93

Tuning:Drop C# (or Db)

Intro:
Gb|---------------------|
Db|---------------------|
Ab|---------------------|
Db|-0-0-0-3-1-8-8-0-3-1-|x4

Verse:
Gb|(--)--------|
Db|(--)--------|
Ab|(--)--------|
Db|(02)-2-3-20-|x4

Chorus:
Gb|-----------------------------------------------------------------|
Db|-----------------------------------------------------------------|
Ab|-----------------------------------------------------------------|
Db|-7-7-7-7-7-7-7-7-5-5-5-5-5-5-5-5-3-3-3-3-3-3-3-3-2-2-2-2-2-2-2-2-|x2

Interlude:
(Rest until he screams "Let Go")
Gb|---------------|
Db|---------------|
Ab|---------------|
Db|0-3-2-0-1-23-21|x4

Outro:
Gb|---------------------------|
Db|---------------------------|
Ab|-------------7--7--7--7----|
Db|-0--0--7--7----------------|x4

Thank you for viewing this tab! Please leave comments on how I can improve in the future.
Suggest correction
comments
print report bad tab
1 comment total.
0 reply
TheBassMeister 140 May 09, 2014 01:34 PM

Oh dear, where to begin...? Well first off, it's Drop C, not C#. That can be really tricky to figure out because it's only a half-step difference, but if you play those open notes at C instead of C#, it should sound better. Second, there are notes missing in both the intro and outro riffs. Especially the outro riff. The chorus looks like you got the bass and the background guitars mixed up some, because its not a steady progression. It moves around more. Remember this is hard rock, so the bass is going to follow the lead guitars pretty closely. Of course, since the tuning is wrong, every last note is wrong, but that's simply a matter of shifting the fret numbers down one. Take a look at the Power Tab for this song to see how to fix this tab. It doesn't have the bass in it, but I can testify to its accuracy. Overall though it was a good try at it. Let Go is not exactly an easy RED song to play, let alone tab. Your tab format is clean and easy to understand, you just gotta work on tab accuracy. But trust me, we're all trying to do that. ;)

guest
You may want to rate the tab now too:
select rating
Wanna post a correction for this tab? Suggest correction