Oops, an error
Loading. Please wait.

Let Go Tab

version 1
version 1

Whole song

Interactive

by RED
15,586 views 21 this week
9 commentsread comments
1 2 3 4 5
accurate
x 7
add to favorites
launch autoscroll
font size
0
reset
how to read this tab
guitar tuner
Autoscroll
slow
fast
+/-
esc
set tempo
stop
Help us to improve Ultimate-Guitar.com Take our survey!
×
Author
fret13 2,028
Artist: Red 
Song: Let Go
Album: End of Silence
Tabbed by: fret13
Tuning dropped Db
 Db Ab Db Gb Bb eb
(C# G# C# F# A# d#)

this is track #3 very hard rock.

INTRO

Feedback from Guitar 2

Guitar 1-some pedal or dial that makes
it very blurry.
|---------------------------------|
|---------------------------------|
|---------------------------------|
|---------------------------------|
|---------------------------------|
|-0-0-0-3-1-1-1-8-8-0-0-3-3-3-1-1-|

|---------------------------------|
|---------------------------------|
|---------------------------------|
|---------------------------------|
|---------------------------------|
|-0-0-0-3-1-1-1-8-8-0-0-3-3-3-5-5-|

|---------------------------------|
|---------------------------------|
|---------------------------------|
|---------------------------------|
|---------------------------------|
|-0-0-0-3-1-1-1-8-8-0-0-3-3-3-1-1-|

|---------------------------------|
|---------------------------------|
|---------------------------------|
|---------------------------------|
|---------------v end of weird dist
|-0-0-0-3-1-1-1-8-8-0-0-8-8-0-8-8-|

both guitars
|---------------------|
|---------------------|
|---------------------|
|---------------------|
|-0-0-0-3-1-8-8-0-3-1-|
|-0-0-0-3-1-8-8-0-3-1-|

|---------------------|
|---------------------|
|---------------------|
|---------------------|
|-0-0-0-3-1-8-8-0-3-5-|
|-0-0-0-3-1-8-8-0-3-5-|

|---------------------|
|---------------------|
|---------------------|
|---------------------|
|-0-0-0-3-1-8-8-0-3-1-|
|-0-0-0-3-1-8-8-0-3-1-|

|---------------------|
|---------------------|
|---------------------|
|---------------------|
|-0-0-0-3-1-8-8-1-3-5-|
|-0-0-0-3-1-8-8-0-3-5-|

VERSE
Guitar 1
|-------------|
|-------------|
|-------------|
|-------------|
|-(0)-(0)-(0)-|
|--0---0---0--|

|-----------------|
|-----------------|
|-----------------|
|-----------------|
|-(0)-0-0-3-3-0-0-|
|-(0)-0-0-3-3-0-0-|

|-------------|x6
|-------------|
|-------------|
|-------------|
|-0-0-3-3-0-0-|
|-0-0-3-3-0-0-|

Guitar 2- very backroundish
|---------------------------------|
|---------------------------------|
|---------------------------------|
|---------------------------------|
|---------------------------------|
|-0-0-0-3-1-1-1-8-8-0-0-3-3-3-1-1-|

|---------------------------------|
|---------------------------------|
|---------------------------------|
|---------------------------------|
|---------------------------------|
|-0-0-0-3-1-1-1-8-8-0-0-3-3-3-5-5-|

|---------------------------------|
|---------------------------------|
|---------------------------------|
|---------------------------------|
|---------------------------------|
|-0-0-0-3-1-1-1-8-8-0-0-3-3-3-1-1-|

|---------------------------------|
|---------------------------------|
|---------------------------------|
|---------------------------------|
|---------------------------------|
|-0-0-0-3-1-1-1-8-8-0-0-3-3-3-5-5-|
now its normal
|---------------------|
|---------------------|
|---------------------|
|---------------------|
|-0-0-0-3-1-8-8-0-3-1-|
|-0-0-0-3-1-8-8-0-3-1-|

|---------------------|
|---------------------|
|---------------------|
|---------------------|
|-0-0-0-3-1-8-8-0-3-5-|
|-0-0-0-3-1-8-8-0-3-5-|

|---------------------|
|---------------------|
|---------------------|
|---------------------|
|-0-0-0-3-1-8-8-0-3-1-|
|-0-0-0-3-1-8-8-0-3-1-|

|---------------------|
|---------------------|
|---------------------|
|---------------------|
|-0-0-0-3-1-8-8-1-3-5-|
|-0-0-0-3-1-8-8-0-3-5-|

PRE-CHORUS
Guitar 1
|------------------------|
|------------------------|
|-6--6--7--7-10-10-11-11-|
|-x--x--x--x--x--x--x--x-|
|-4--4--5--5--8--8--9--9-|
|------------------------|

|------------------------|
|------------------------|
|-6--6--7--7-10-10-11-11-|
|-x--x--x--x--x--x--x--x-|
|-4--4--5--5--8--8--9--9-|
|------------------------|

Guitar 2
|------------------------|
|------------------------|
|------------------------|
|------------------------|
|-1--1--3--3--5--5--7--7-|
|-1--1--3--3--5--5--7--7-|

|------------------------|
|------------------------|
|------------------------|
|------------------------|
|-1--1--3--3--5--5--7--7-|
|-1--1--3--3--5--5--7--7-|

CHORUS

Guitar 1

|----------------------------|
|----------------------------|
|-14-14-14-14-14-13-11--9--7-|
|--x--x--x--x--x--x--x--x--x-|
|-12-12-12-12-12-11--9--7--5-|
|----------------------------|

|----------------------------|
|----------------------------|
|-14-14-14-14-14-13-11--9--7-|
|--x--x--x--x--x--x--x--x--x-|
|-12-12-12-12-12-11--9--7--5-|
|----------------------------|

|----------------------------|
|----------------------------|
|-14-14-14-14-14-13-11--9--7-|
|--x--x--x--x--x--x--x--x--x-|
|-12-12-12-12-12-11--9--7--5-|
|----------------------------|

|----------------------------|
|----------------------------|
|-14-14-14-14-14-13-11--9--7-|
|--x--x--x--x--x--x--x--x--x-|
|-12-12-12-12-12-11--9--7--5-|
|----------------------------|

Guitar 2

|-----------------------------------------------------------------|
|-----------------------------------------------------------------|
|-----------------------------------------------------------------|
|-7-7-7-7-7-7-7-7-5-5-5-5-5-5-5-5-3-3-3-3-3-3-3-3-2-2-2-2-2-2-2-2-|
|-7-7-7-7-7-7-7-7-5-5-5-5-5-5-5-5-3-3-3-3-3-3-3-3-2-2-2-2-2-2-2-2-|
|-7-7-7-7-7-7-7-7-5-5-5-5-5-5-5-5-3-3-3-3-3-3-3-3-2-2-2-2-2-2-2-2-|

|-----------------------------------------------------------------|
|-----------------------------------------------------------------|
|-----------------------------------------------------------------|
|-7-7-7-7-7-7-7-7-5-5-5-5-5-5-5-5-3-3-3-3-3-3-3-3-2-2-2-2-2-2-2-2-|
|-7-7-7-7-7-7-7-7-5-5-5-5-5-5-5-5-3-3-3-3-3-3-3-3-2-2-2-2-2-2-2-2-|
|-7-7-7-7-7-7-7-7-5-5-5-5-5-5-5-5-3-3-3-3-3-3-3-3-2-2-2-2-2-2-2-2-|

VERSE
Guitar 1
|-------------|
|-------------|
|-------------|
|-------------|
|-(0)-(0)-(0)-|
|--0---0---0--|

|-----------------|
|-----------------|
|-----------------|
|-----------------|
|-(0)-0-0-3-3-0-0-|
|-(0)-0-0-3-3-0-0-|

|-------------|x6
|-------------|
|-------------|
|-------------|
|-0-0-3-3-0-0-|
|-0-0-3-3-0-0-|


Guitar 2- very backroundish
|---------------------------------|
|---------------------------------|
|---------------------------------|
|---------------------------------|
|---------------------------------|
|-0-0-0-3-1-1-1-8-8-0-0-3-3-3-1-1-|

|---------------------------------|
|---------------------------------|
|---------------------------------|
|---------------------------------|
|---------------------------------|
|-0-0-0-3-1-1-1-8-8-0-0-3-3-3-5-5-|

|---------------------------------|
|---------------------------------|
|---------------------------------|
|---------------------------------|
|---------------------------------|
|-0-0-0-3-1-1-1-8-8-0-0-3-3-3-1-1-|

|---------------------------------|
|---------------------------------|
|---------------------------------|
|---------------------------------|
|---------------------------------|
|-0-0-0-3-1-1-1-8-8-0-0-3-3-3-5-5-|
now its normal
|---------------------|
|---------------------|
|---------------------|
|---------------------|
|-0-0-0-3-1-8-8-0-3-1-|
|-0-0-0-3-1-8-8-0-3-1-|

|---------------------|
|---------------------|
|---------------------|
|---------------------|
|-0-0-0-3-1-8-8-0-3-5-|
|-0-0-0-3-1-8-8-0-3-5-|

|---------------------|
|---------------------|
|---------------------|
|---------------------|
|-0-0-0-3-1-8-8-0-3-1-|
|-0-0-0-3-1-8-8-0-3-1-|

|---------------------|
|---------------------|
|---------------------|
|---------------------|
|-0-0-0-3-1-8-8-1-3-5-|
|-0-0-0-3-1-8-8-0-3-5-|

PRE-CHORUS
Guitar 1
|------------------------|
|------------------------|
|-6--6--7--7-10-10-11-11-|
|-x--x--x--x--x--x--x--x-|
|-4--4--5--5--8--8--9--9-|
|------------------------|

|------------------------|
|------------------------|
|-6--6--7--7-10-10-11-11-|
|-x--x--x--x--x--x--x--x-|
|-4--4--5--5--8--8--9--9-|
|------------------------|

Guitar 2
|------------------------|
|------------------------|
|------------------------|
|------------------------|
|-1--1--3--3--5--5--7--7-|
|-1--1--3--3--5--5--7--7-|

|------------------------|
|------------------------|
|------------------------|
|------------------------|
|-1--1--3--3--5--5--7--7-|
|-1--1--3--3--5--5--7--7-|

CHORUS

Guitar 1

|----------------------------|
|----------------------------|
|-14-14-14-14-14-13-11--9--7-|
|--x--x--x--x--x--x--x--x--x-|
|-12-12-12-12-12-11--9--7--5-|
|----------------------------|

|----------------------------|
|----------------------------|
|-14-14-14-14-14-13-11--9--7-|
|--x--x--x--x--x--x--x--x--x-|
|-12-12-12-12-12-11--9--7--5-|
|----------------------------|

|----------------------------|
|----------------------------|
|-14-14-14-14-14-13-11--9--7-|
|--x--x--x--x--x--x--x--x--x-|
|-12-12-12-12-12-11--9--7--5-|
|----------------------------|

|----------------------------|
|----------------------------|
|-14-14-14-14-14-13-11--9--7-|
|--x--x--x--x--x--x--x--x--x-|
|-12-12-12-12-12-11--9--7--5-|
|----------------------------|

Guitar 2

|-----------------------------------------------------------------|
|-----------------------------------------------------------------|
|-----------------------------------------------------------------|
|-7-7-7-7-7-7-7-7-5-5-5-5-5-5-5-5-3-3-3-3-3-3-3-3-2-2-2-2-2-2-2-2-|
|-7-7-7-7-7-7-7-7-5-5-5-5-5-5-5-5-3-3-3-3-3-3-3-3-2-2-2-2-2-2-2-2-|
|-7-7-7-7-7-7-7-7-5-5-5-5-5-5-5-5-3-3-3-3-3-3-3-3-2-2-2-2-2-2-2-2-|

|-----------------------------------------------------------------|
|-----------------------------------------------------------------|
|-----------------------------------------------------------------|
|-7-7-7-7-7-7-7-7-5-5-5-5-5-5-5-5-3-3-3-3-3-3-3-3-2-2-2-2-2-2-2-2-|
|-7-7-7-7-7-7-7-7-5-5-5-5-5-5-5-5-3-3-3-3-3-3-3-3-2-2-2-2-2-2-2-2-|
|-7-7-7-7-7-7-7-7-5-5-5-5-5-5-5-5-3-3-3-3-3-3-3-3-2-2-2-2-2-2-2-2-|

BRIDGE

Guitar 1
|-----------------|x6
|-----------------|
|-----------------|
|-----------------|
|-----------------|
|-0-0-3-3-1-1-0-1-|
  . . . . . . . .

|-------------------------------|x6
|-------------------------------|
|-------------------------------|
|-------------------------------|
|-------------------------------|
|-0-0-3-3-1-1-0-1-1-1-3-3-1-1-0-|

Guitar 2

|-------------|x8
|-------------|
|-------------|
|-------------|
|-0-0-3-3-0-0-|
|-0-0-3-3-0-0-|

Guitar 1-clean

|-0-0-0-0-0-0-0-0-0-0-0-0-0-0-0-0-|
|-1-1-1-1-1-1-1-1-1-1-1-1-1-1-1-1-|
|-2-2-2-2-2-2-2-2-2-2-2-2-2-2-2-2-|
|-2-2-2-2-2-2-2-2-2-2-2-2-2-2-2-2-|
|-0-0-0-0-0-0-0-0-0-0-0-0-0-0-0-0-|
|---------------------------------|

|-0-0-0-0-0-0-0-0-0-0-0-0-0-0-0-0-|
|-0-0-0-0-0-0-0-0-0-0-0-0-0-0-0-0-|
|-0-0-0-0-0-0-0-0-0-0-0-0-0-0-0-0-|
|-0-0-0-0-0-0-0-0-0-0-0-0-0-0-0-0-|
|-3-3-3-3-3-3-3-3-3-3-3-3-3-3-3-3-|
|---------------------------------|

|-0-0-0-0-0-0-0-0-0-0-0-0-0-0-0-0-|
|-1-1-1-1-1-1-1-1-1-1-1-1-1-1-1-1-|
|-2-2-2-2-2-2-2-2-2-2-2-2-2-2-2-2-|
|-3-3-3-3-3-3-3-3-3-3-3-3-3-3-3-3-|
|---------------------------------|
|---------------------------------|

|-0-0-0-0-0-0-0-0-0-0-0-0-0-0-0-0-|
|-0-0-0-0-0-0-0-0-0-0-0-0-0-0-0-0-|
|-2-2-2-2-2-2-2-2-2-2-2-2-2-2-2-2-|
|-2-2-2-2-2-2-2-2-2-2-2-2-2-2-2-2-|
|-2-2-2-2-2-2-2-2-2-2-2-2-2-2-2-2-|
|---------------------------------|

CHORUS

Guitar 1

|----------------------------|
|----------------------------|
|-14-14-14-14-14-13-11--9--7-|
|--x--x--x--x--x--x--x--x--x-|
|-12-12-12-12-12-11--9--7--5-|
|----------------------------|

|----------------------------|
|----------------------------|
|-14-14-14-14-14-13-11--9--7-|
|--x--x--x--x--x--x--x--x--x-|
|-12-12-12-12-12-11--9--7--5-|
|----------------------------|

|----------------------------|
|----------------------------|
|-14-14-14-14-14-13-11--9--7-|
|--x--x--x--x--x--x--x--x--x-|
|-12-12-12-12-12-11--9--7--5-|
|----------------------------|

|----------------------------|
|----------------------------|
|-14-14-14-14-14-13-11--9--7-|
|--x--x--x--x--x--x--x--x--x-|
|-12-12-12-12-12-11--9--7--5-|
|----------------------------|

Guitar 2

|-----------------------------------------------------------------|
|-----------------------------------------------------------------|
|-----------------------------------------------------------------|
|-7-7-7-7-7-7-7-7-5-5-5-5-5-5-5-5-3-3-3-3-3-3-3-3-2-2-2-2-2-2-2-2-|
|-7-7-7-7-7-7-7-7-5-5-5-5-5-5-5-5-3-3-3-3-3-3-3-3-2-2-2-2-2-2-2-2-|
|-7-7-7-7-7-7-7-7-5-5-5-5-5-5-5-5-3-3-3-3-3-3-3-3-2-2-2-2-2-2-2-2-|

|-----------------------------------------------------------------|
|-----------------------------------------------------------------|
|-----------------------------------------------------------------|
|-7-7-7-7-7-7-7-7-5-5-5-5-5-5-5-5-3-3-3-3-3-3-3-3-2-2-2-2-2-2-2-2-|
|-7-7-7-7-7-7-7-7-5-5-5-5-5-5-5-5-3-3-3-3-3-3-3-3-2-2-2-2-2-2-2-2-|
|-7-7-7-7-7-7-7-7-5-5-5-5-5-5-5-5-3-3-3-3-3-3-3-3-2-2-2-2-2-2-2-2-|

OUTRO

Guitar 1
|-------------------------------------------------------------------------|
|-------------------------------------------------------------------------|
|-16-16-16-16-16-16-16-16-18-18-18-18-14-14-14-14-13-13-13-13-13-13-13-13-|
|--x--x--x--x--x--x--x--x--x--x--x--x--x--x--x--x--x--x--x--x--x--x--x--x-|
|-14-14-14-14-14-14-14-14-16-16-16-16-12-12-12-12-11-11-11-11-11-11-11-11-|
|-------------------------------------------------------------------------|

|-------------------------|
|-------------------------|
|-14-14-13-13-14-14-18-18-|
|--x--x--x--x--x--x--x--x-|
|-12-12-11-11-12-12-16-16-|
|-------------------------|

|-------------------------------------------------------------------------|
|-------------------------------------------------------------------------|
|-16-16-16-16-16-16-16-16-18-18-18-18-14-14-14-14-13-13-13-13-13-13-13-13-|
|--x--x--x--x--x--x--x--x--x--x--x--x--x--x--x--x--x--x--x--x--x--x--x--x-|
|-14-14-14-14-14-14-14-14-16-16-16-16-12-12-12-12-11-11-11-11-11-11-11-11-|
|-------------------------------------------------------------------------|

|-------------------------|
|-------------------------|
|-14-14-13-13-14-14-18-18-|
|--x--x--x--x--x--x--x--x-|
|-12-12-11-11-12-12-16-16-|
|-------------------------|

|-------------------------------------------------------------------------|
|-------------------------------------------------------------------------|
|-16-16-16-16-16-16-16-16-18-18-18-18-14-14-14-14-13-13-13-13-13-13-13-13-|
|--x--x--x--x--x--x--x--x--x--x--x--x--x--x--x--x--x--x--x--x--x--x--x--x-|
|-14-14-14-14-14-14-14-14-16-16-16-16-12-12-12-12-11-11-11-11-11-11-11-11-|
|-------------------------------------------------------------------------|

|-------------------------|
|-------------------------|
|-14-14-13-13-14-14-18-18-|
|--x--x--x--x--x--x--x--x-|
|-12-12-11-11-12-12-16-16-|
|-------------------------|

|-------------------------------------------------------------------------|
|-------------------------------------------------------------------------|
|-16-16-16-16-16-16-16-16-18-18-18-18-14-14-14-14-13-13-13-13-13-13-13-13-|
|--x--x--x--x--x--x--x--x--x--x--x--x--x--x--x--x--x--x--x--x--x--x--x--x-|
|-14-14-14-14-14-14-14-14-16-16-16-16-12-12-12-12-11-11-11-11-11-11-11-11-|
|-------------------------------------------------------------------------|

|-------------------------|
|-------------------------|
|-14-14-13-13-14-14-18-18-|
|--x--x--x--x--x--x--x--x-|
|-12-12-11-11-12-12-16-16-|
|-------------------------|

Guitar 2
|---------------------------|
|---------------------------|
|-------------9--9--9--9----|
|-0--0--7--7--9--9--9--9----|
|-0--0--7--7--7--7--7--7----|
|-0--0--7--7----------------|

|---------------------------|
|---------------------------|
|-------------9--9--9--9----|
|-0--0--7--7--9--9--9--9----|
|-0--0--7--7--7--7--7--7----|
|-0--0--7--7----------------|

|---------------------------|
|---------------------------|
|-------------9--9--9--9----|
|-0--0--7--7--9--9--9--9----|
|-0--0--7--7--7--7--7--7----|
|-0--0--7--7----------------|

|---------------------------|
|---------------------------|
|-------------9--9--9--9----|
|-0--0--7--7--9--9--9--9----|
|-0--0--7--7--7--7--7--7----|
|-0--0--7--7----------------|
you might have to play it more

ACOUTIC OUT
|-1-1-1-1-1-1-1-1-1-1-1-1-1-1-1-1-|
|-3-3-3-3-3-3-3-3-3-3-3-3-3-3-3-3-|
|-2-2-2-2-2-2-2-2-2-2-2-2-2-2-2-2-|
|-0-0-0-0-0-0-0-0-0-0-0-0-0-0-0-0-|
|---------------------------------|
|---------------------------------|

|-0-0-0-0-0-0-0-0-0-0-0-0-0-0-0-0-|
|-1-1-1-1-1-1-1-1-1-1-1-1-1-1-1-1-|
|-2-2-2-2-2-2-2-2-2-2-2-2-2-2-2-2-|
|-2-2-2-2-2-2-2-2-2-2-2-2-2-2-2-2-|
|-0-0-0-0-0-0-0-0-0-0-0-0-0-0-0-0-|
|---------------------------------|

|-0-0-0-0-0-0-0-0-0-0-0-0-0-0-0-0-|
|-0-0-0-0-0-0-0-0-0-0-0-0-0-0-0-0-|
|-0-0-0-0-0-0-0-0-0-0-0-0-0-0-0-0-|
|-2-2-2-2-2-2-2-2-2-2-2-2-2-2-2-2-|
|-2-2-2-2-2-2-2-2-2-2-2-2-2-2-2-2-|
|---------------------------------|

|-0-0-0-0-0-0-0-0-0-0-0-0-0-0-0-0-|
|-0-0-0-0-0-0-0-0-0-0-0-0-0-0-0-0-|
|-0-0-0-0-0-0-0-0-0-0-0-0-0-0-0-0-|
|-2-2-2-2-2-2-2-2-2-2-2-2-2-2-2-2-|
|-2-2-2-2-2-2-2-2-2-2-2-2-2-2-2-2-|
|---------------------------------|

ok then play that untill the end

thanks
Suggest correction new What's this?
You can suggest a correction to this tab. Community and Mods will review your correction and vote to approve or reject it.
comments
print report bad tab
9 comments total. Showing first comments.
0 reply
ima_tree06 65 wrote on December 4 2006, 02:06 pm

This looks accurate, I haven't gotten the chance to play it yet, but the only thing I would change is this: instead of tabbing out every measure like this-

Guitar 2

|-------------|
|-------------|
|-------------|
|-------------|
|-0-0-3-3-0-0-|
|-0-0-3-3-0-0-|

|-------------|
|-------------|
|-------------|
|-------------|
|-0-0-3-3-0-0-|
|-0-0-3-3-0-0-|

|-------------|
|-------------|
|-------------|
|-------------|
|-0-0-3-3-0-0-|
|-0-0-3-3-0-0-|

|-------------|
|-------------|
|-------------|
|-------------|
|-0-0-3-3-0-0-|
|-0-0-3-3-0-0-|

Just abbreviate it like this:

|-------------|
|-------------|
|-------------|
|-------------| x4
|-0-0-3-3-0-0-|
|-0-0-3-3-0-0-|

It's a lot easier to read that way, and it saves a heckuva lot of printer ink if people print it out. Just a suggestion.

0 reply
fret13 2,028 wrote on December 7 2006, 07:42 pm

yeah thanks for the suggestion, Ive jsut updated it so its shorter and easier to read.

-1 reply
KevP714 291 wrote on February 9 2007, 06:44 pm

yea, this song is in drop c. i have it tabbed out, along with most of the other songs on the album, im just to much of a lazy jerk to upload them. lol. :)

guest
You may want to rate the tab now too:
select rating
Please do not post tabs as comments. Select "correction" instead!