Oops, an error
Loading. Please wait.

Lost Tab

version 1
version 1

Intro

Whole song

by RED
3,422 views 1 this week
no commentswrite comment
1 2 3 4 5
1 last vote to show rating
add to favorites
launch autoscroll
font size
0
reset
how to read this tab
guitar tuner
Autoscroll
slow
fast
+/-
esc
set tempo
stop
Help us to improve Ultimate-Guitar.com Take our survey!
×
Author
----------------------------------------------------------------------------
                             Lost - Red
----------------------------------------------------------------------------
Tabbed by: Guitarman479
Email: amp.566@hotmail.com

Tuning: Drop D

Intro (0:35)
e|---------------------------------------------------------|
B|---------------------------------------------------------|
G|---------------------------------------------------------|
D|--4-------8-------4------2-------8-------4------2--------| (x2)
A|--4-(x16)-8-(x12)-4-(x4)-2-(x16)-8-(x12)-4-(x6)-2-(x3)---|
D|--4-------8-------4------2-------8-------4------2--------|

Verse (No guitar)


Chorus
e|------------------------------------|
B|------------------------------------|
G|------------------------------------|
D|--8-------6-------4-------6---------| (x2)
A|--8-(x16)-6-(x16)-4-(x16)-6-(x16)---|
D|--8-------6-------4-------6---------|

Repeat Intro (x1)

Verse 2 (No guitar)

Repeat Chorus (x2)

Sorry this is all I have of the song so far. As I learn the rest of this song i 
will update this tab.
Suggest correction
Give kudos to tab author, rate the tab!
1 2 3 4 5
comments
print report bad tab
guest
You may want to rate the tab now too:
select rating
Wanna post a correction for this tab? Suggest correction