Oops, an error
Loading. Please wait.

Lost Tab

version 1
version 1

Live

  • This is the version that I believe Anthony plays l... Show more

Whole song

by RED
4 views 1 this week
no commentswrite comment
1 2 3 4 5
1 last vote to show rating
add to favorites
launch autoscroll
font size
0
reset
how to read this tab
guitar tuner
Autoscroll
slow
fast
+/-
esc
set tempo
stop
Help us to improve Ultimate-Guitar.com Take our survey!
×
Author
Difficulty
Tuning
novice
C# G# C# F# A# D#
About this tab version
This is the version that I believe Anthony plays live. Also, the song was original written with two guitars. In this version, you can play it with one, and this is also how I play it with one. Was this info helpful? Yes No
[Intro]

D#|---------------------------------------------------------------------------|
A#|-------------------------3-------------------------------------------------|
F#|---4---------12----------2--------9----------------------------------------|
C#|---2---------10----------0--------7-------9-9-9---10-10-10-----------------|
G#|---2-x8------10-x8-------0-x8-----7-x8----x-x-x---x--x--x------------------|
C#|---2---------10----------0--------7-------9-9-9---10-10-10-----------------|

D#|---------------------------------------------------------------------------|
A#|-------------------------3-------------------------------------------------|
F#|---4---------12----------2--------9----------------------------------------|
C#|---2---------10----------0--------7-------9-9-9---10-10-10-----------------|
G#|---2-x8------10-x8-------0-x8-----7-x8----x-x-x---x--x--x------------------|
C#|---2---------10----------0--------7-------9-9-9---10-10-10-----------------|


[Verse]

D#|---------------------------------------------------------------------------|
A#|---------------------------------------------------------------------------|
F#|---------------------------------------------------------------------------|
C#|---------------------------------------------------------------------------|
G#|---Chill during the verse--------------------------------------------------|
C#|---------------------------------------------------------------------------|

D#|---------------------------------------------------------------------------|
A#|---------------------------------------------------------------------------|
F#|---------------------------------------------------------------------------|
C#|---------------------------------------------------------------------------|
G#|---------------------------------------------------------------------------|
C#|---------------------------------------------------------------------------|


[Chorus]

D#|---------------------------------------------------------------------------|
A#|---------------------------------------------------------------------------|
F#|---5-----------------------------------------------------------------------|
C#|---5-x15-------------7-------2-------5-------------------------------------|
G#|---3-----------------7-x15---2-x15---5-x15---------------------------------|
C#|---------------------7-------2-------5-------------------------------------|

D#|---------------------------------------------------------------------------|
A#|---------------------------------------------------------------------------|
F#|---5-----------------------------------------------------------------------|
C#|---5-x15-------------7-------2-------1-------------------------------------|
G#|---3-----------------7-x15---2-x15---1-x15---------------------------------|
C#|---------------------7-------2-------1-------------------------------------|


[Leading into Verse 2]

D#|---------------------------------------------------------------------------|
A#|------------------3--------------------------------------------------------|
F#|---4------12------2------9-------------------------------------------------|
C#|---2------10------0------7------9-9-9---10-10-10---------------------------|
G#|---2-x8---10-x8---0-x8---7-x8---x-x-x---x--x--x----------------------------|
C#|---2------10------0------7------9-9-9---10-10-10---------------------------|

D#|---------------------------------------------------------------------------|
A#|------------------3--------------------------------------------------------|
F#|---4------12------2------9-------------------------------------------------|
C#|---2------10------0------7------9-9-9---10-10-10---------------------------|
G#|---2-x8---10-x8---0-x8---7-x8---x-x-x---x--x--x----------------------------|
C#|---2------10------0------7------9-9-9---10-10-10---------------------------|

[Verse 2]

D#|---------------------------------------------------------------------------|
A#|---------------------------------------------------------------------------|
F#|---------------------------------------------------------------------------|
C#|---------------------------------------------------------------------------|
G#|---Chill during the verse--------------------------------------------------|
C#|---------------------------------------------------------------------------|

D#|---------------------------------------------------------------------------|
A#|---------------------------------------------------------------------------|
F#|---------------------------------------------------------------------------|
C#|---------------------------------------------------------------------------|
G#|---------------------------------------------------------------------------|
C#|---------------------------------------------------------------------------|

[Chorus]

D#|---------------------------------------------------------------------------|
A#|---------------------------------------------------------------------------|
F#|---5-----------------------------------------------------------------------|
C#|---5-x15(I think)----7-------2-------7-------------------------------------|
G#|---3-----------------7-x15---2-x15---5-x15---------------------------------|
C#|---------------------7-------2-------5-------------------------------------|

D#|---------------------------------------------------------------------------|
A#|---------------------------------------------------------------------------|
F#|---5-----------------------------------------------------------------------|
C#|---5-x15-------------7-------2-------1-------------------------------------|
G#|---3-----------------7-x15---2-x15---1-x15---------------------------------|
C#|---------------------7-------2-------1-------------------------------------|

[Bridge 1]

D#|---------------------------------------------------------------------------|
A#|---------------------------------------------------------------------------|
F#|-------------------5-------------------------------------------------------|
C#|---2-------7-------5-x15---5------4----------------------------------------|
G#|---2-x15---7-x15---3-------5-x8---5-x8-------------------------------------|
C#|---2-------7---------------5------4----------------------------------------|

D#|---------------------------------------------------------------------------|
A#|---------------------------------------------------------------------------|
F#|---------------------------11------13--------------------------------------|
C#|---2-------7-------5-------x--x4---x--x4-----------------------------------|
G#|---2-x15---7-x15---5-x24---9-------11--------------------------------------|
C#|---2-------7-------5-------------------------------------------------------|

[Bridge 2, right after the violins and vocals. This is palm-muted]

D#|---------------------------------------------------------------------------|
A#|---------------------------------------------------------------------------|
F#|---------------------------------------------------------------------------|
C#|---2------4------5------4--------------------------------------------------|
G#|---2-x8---4-x8---5-x8---5-x8-----------------------------------------------|
C#|---2------4------5------4--------------------------------------------------|

D#|---------------------------------------------------------------------------|
A#|---------------------------------------------------------------------------|
F#|---------------------------------------------------------------------------|
C#|---2------4------5------4--------------------------------------------------|
G#|---2-x8---4-x8---5-x8---5-x8-----------------------------------------------|
C#|---2------4------5------4--------------------------------------------------|

[Lead into outro. About half as fast as the first two times]

D#|---------------------------------------------------------------------------|
A#|------------------3--------------------------------------------------------|
F#|---4------12------2------9-------------------------------------------------|
C#|---2------10------0------7-------------------------------------------------|
G#|---2-x8---10-x8---0-x8---7-x16---------------------------------------------|
C#|---2------10------0------7-------------------------------------------------|

D#|---------------------------------------------------------------------------|
A#|------------------3--------------------------------------------------------|
F#|---4------12------2------9-------------------------------------------------|
C#|---2------10------0------7-------------------------------------------------|
G#|---2-x8---10-x8---0-x8---7-x16---------------------------------------------|
C#|---2------10------0------7-------------------------------------------------|

[Outro]

D#|---------------------------------------------------------------------------|
A#|---------------------------------------------------------------------------|
F#|---13-------16------12-----------------------------------------------------|
C#|---x--x15---x--x4---x--x3--------------------------------------------------|
G#|---11-------14------10-----------------------------------------------------|
C#|---------------------------------------------------------------------------|

D#|---------------------------------------------------------------------------|
A#|---------------------------------------------------------------------------|
F#|---13-------16------12-----------------------------------------------------|
C#|---x--x15---x--x4---x--x3--------------------------------------------------|
G#|---11-------14------10-----------------------------------------------------|
C#|---------------------------------------------------------------------------|

D#|---------------------------------------------------------------------------|
A#|---------------------------------------------------------------------------|
F#|---13------16------12------11----------------------------------------------|
C#|---x--x8---x--x8---x--x8---x--x8-------------------------------------------|
G#|---11------14------10------9-----------------------------------------------|
C#|---------------------------------------------------------------------------|

D#|---------------------------------------------------------------------------|
A#|---------------------------------------------------------------------------|
F#|---13------16------12------11----------------------------------------------|
C#|---x--x8---x--x8---x--x8---x--x8-------------------------------------------|
G#|---11------14------10------9-----------------------------------------------|
C#|---------------------------------------------------------------------------|

************************************

| x   Dead note

************************************
Suggest correction
Give kudos to tab author, rate the tab!
1 2 3 4 5
comments
print report bad tab
guest
You may want to rate the tab now too:
select rating
Wanna post a correction for this tab? Suggest correction