Oops, an error
Loading. Please wait.

Lost Tab

version 1
version 1

Whole song

by RED
4,570 views 6 this week
no commentswrite comment
1 2 3 4 5
accurate
x 5
add to favorites
launch autoscroll
font size
0
reset
how to read this tab
guitar tuner
Tab Pro tools
  • play this tab
  • loop segment
  • change instrument
  • show fretboard
  • metronome
×
Best way to learn
"Lost"
Autoscroll
slow
fast
+/-
esc
set tempo
stop
Contributor
Difficulty
novice
LOST
As recorded by RED
(From the 2006 Album END OF SILENCE)
        Words and Music by RED

Gtr I (C G C F A D) - 'Piano with effects'
Gtr II (C G C F A D) - 'Heavy Distortion'
Gtr III (C G C F A D) - 'Heavy Distortion'
Gtr IV (C G C F A D) - 'Clean with effects'
Yea the song isnt in standard, its in dropped c, but you could easily 
play it in dropped D, cause very few parts actually play the low C

Great song by RED, I didnt add all the violin and piano cause 
its really hard to figure out and im lazy 
so I just have the power chords for the chorus and breakdown or whatever. Enjoy
   piano intro
    Q=90
   4/4
    Gtr I
                                                       3x
||------------|-------------|-----------|--------------||
||o-----------|-12----------|-----------|-13-12-------o||
||--13--------|---------12--|-11--------|---------14---||
||------------|-------------|--0--------|-10-----------||
||o-14--------|-10----------|--9--------|-------------o||
||------------|-------------|-----------|--------------||


   guitar intro
    Gtr II
||--------------------------------------------------|
||o-------------------------------------------------|
||--13-13-13-13-13-13-13-13-13-13-13-13-13-13-13-13-|
||---x--x--x--x--x--x--x--x--x--x--x--x--x--x--x--x-|
||o-11-11-11-11-11-11-11-11-11-11-11-11-11-11-11-11-|
||--------------------------------------------------|
|
|   Gtr III
||--------------------------------------------------|
||o-------------------------------------------------|
||--------------------------------------------------|
||--------------------------------------------------|
||o--2--2--2--2--2--2--2--2--2--2--2--2--2--2--2--2-|
||---2--2--2--2--2--2--2--2--2--2--2--2--2--2--2--2-|


|--------------------------------------------------|
|--------------------------------------------------|
|-16-16-16-16-16-16-16-16-16-16-16-16-12-12-12-12--|
|--x--x--x--x--x--x--x--x--x--x--x--x--x--x--x--x--|
|-14-14-14-14-14-14-14-14-14-14-14-14-10-10-10-10--|
|--------------------------------------------------|
|
|--------------------------------------------------|
|--------------------------------------------------|
|--------------------------------------------------|
|--5--5--5--5--5--5--5--5--5--5--5--5--5--5--5--5--|
|--3--3--3--3--3--3--3--3--3--3--3--3--3--3--3--3--|
|--------------------------------------------------|


|-------------------------------------------------|
|-------------------------------------------------|
|-11-11-11-11-11-11-11-11-11-11-11-11-11-11-11-11-|
|--x--x--x--x--x--x--x--x--x--x--x--x--x--x--x--x-|
|--9--9--9--9--9--9--9--9--9--9--9--9--9--9--9--9-|
|-------------------------------------------------|
|
|-------------------------------------------------|
|-------------------------------------------------|
|-------------------------------------------------|
|-------------------------------------------------|
|--0--0--0--0--0--0--0--0--0--0--0--0--0--0--0--0-|
|--0--0--0--0--0--0--0--0--0--0--0--0--0--0--0--0-|


|--------------------------------------------------||
|-------------------------------------------------o||
|-17-17-17-17-17-17-17-17-17-16-16-16-16-14-14-14--||
|--x--x--x--x--x--x--x--x--x--x--x--x--x--x--x--x--||
|-15-15-15-15-15-15-15-15-15-14-14-14-14-12-12-12-o||
|--------------------------------------------------||
|
|--------------------------------------------------||
|-------------------------------------------------o||
|--------------------------------------------------||
|-----------------------------9--9--9--9-10-10-10--||
|--7--7--7--7--7--7--7--7--7--x--x--x--x--x--x--x-o||
|--7--7--7--7--7--7--7--7--7--9--9--9--9-10-10-10--||


   verse
    Gtr IV   This is kinda hard to play, I dont think its played with a guitar.
||--12----------------------------12----------------|
||o-------------12----13-12-------------13----------|
||--------12----------------------------------12-11-|
||-----14----14----14-------14-14----14----14-------|
||o-------------------------------------------------|
||--------------------------------------------------|


|-12------------------------------------------------||
|-------------10-12----13----12----10-12-----------o||
|-------12----------------------------------12-11---||
|----14----14-------14----14----14-------14---------||
|--------------------------------------------------o||
|---------------------------------------------------||


 Chorus
  Gtr III
|---------------------------------|---------------------------------|
|---------------------------------|---------------------------------|
|-5-5-5-5-5-5-5-5-5-5-5-5-5-5-5-5-|---------------------------------|
|-5-5-5-5-5-5-5-5-5-5-5-5-5-5-5-5-|-7-7-7-7-7-7-7-7-7-7-7-7-7-7-7-7-|
|-3-3-3-3-3-3-3-3-3-3-3-3-3-3-3-3-|-7-7-7-7-7-7-7-7-7-7-7-7-7-7-7-7-|
|---------------------------------|-7-7-7-7-7-7-7-7-7-7-7-7-7-7-7-7-|


|---------------------------------|-----------------------------------|
|---------------------------------|-----------------------------------|
|---------------------------------|-----------------------------------|
|-2-2-2-2-2-2-2-2-2-2-2-2-2-2-2-2-|-7-7-7-7-7-7-7-7-7-7-7-7-7-7-7-7---|
|-2-2-2-2-2-2-2-2-2-2-2-2-2-2-2-2-|-5-5-5-5-5-5-5-5-5-5-5-5-5-5-5-5---|
|-2-2-2-2-2-2-2-2-2-2-2-2-2-2-2-2-|-5-5-5-5-5-5-5-5-5-5-5-5-5-5-5-5---|


|---------------------------------|-----------------------------------|
|---------------------------------|-----------------------------------|
|-5-5-5-5-5-5-5-5-5-5-5-5-5-5-5-5-|-----------------------------------|
|-5-5-5-5-5-5-5-5-5-5-5-5-5-5-5-5-|-7-7-7-7-7-7-7-7-7-7-7-7-7-7-7-7---|
|-3-3-3-3-3-3-3-3-3-3-3-3-3-3-3-3-|-7-7-7-7-7-7-7-7-7-7-7-7-7-7-7-7---|
|---------------------------------|-7-7-7-7-7-7-7-7-7-7-7-7-7-7-7-7---|


|---------------------------------|-----------------------------------|
|---------------------------------|-----------------------------------|
|---------------------------------|-----------------------------------|
|-2-2-2-2-2-2-2-2-2-2-2-2-2-2-2-2-|-3-3-3-3-3-3-3-3-3-3-3-3-3-3-3-3---|
|-2-2-2-2-2-2-2-2-2-2-2-2-2-2-2-2-|-1-1-1-1-1-1-1-1-1-1-1-1-1-1-1-1---|
|-2-2-2-2-2-2-2-2-2-2-2-2-2-2-2-2-|-1-1-1-1-1-1-1-1-1-1-1-1-1-1-1-1---|
After the chorus play the guitar intro, verse and chorus again


 Bridge
|---------------------------------|-----------------------------------|
|---------------------------------|-----------------------------------|
|---------------------------------|-----------------------------------|
|-2-2-2-2-2-2-2-2-2-2-2-2-2-2-2-2-|-7-7-7-7-7-7-7-7-7-7-7-7-7-7-7-7---|
|-2-2-2-2-2-2-2-2-2-2-2-2-2-2-2-2-|-7-7-7-7-7-7-7-7-7-7-7-7-7-7-7-7---|
|-2-2-2-2-2-2-2-2-2-2-2-2-2-2-2-2-|-7-7-7-7-7-7-7-7-7-7-7-7-7-7-7-7---|


|---------------------------------|-----------------------------------|
|---------------------------------|-----------------------------------|
|-5-5-5-5-5-5-5-5-5-5-5-5-5-5-5-5-|-----------------------------------|
|-5-5-5-5-5-5-5-5-5-5-5-5-5-5-5-5-|-5-5-5-5-5-5-5-5-4-4-4-4-4-4-4-4---|
|-3-3-3-3-3-3-3-3-3-3-3-3-3-3-3-3-|-5-5-5-5-5-5-5-5-5-5-5-5-5-5-5-5---|
|---------------------------------|-5-5-5-5-5-5-5-5-4-4-4-4-4-4-4-4---|


|---------------------------------|-----------------------------------|
|---------------------------------|-----------------------------------|
|---------------------------------|-----------------------------------|
|-2-2-2-2-2-2-2-2-2-2-2-2-2-2-2-2-|-7-7-7-7-7-7-7-7-7-7-7-7-7-7-7-7---|
|-2-2-2-2-2-2-2-2-2-2-2-2-2-2-2-2-|-7-7-7-7-7-7-7-7-7-7-7-7-7-7-7-7---|
|-2-2-2-2-2-2-2-2-2-2-2-2-2-2-2-2-|-7-7-7-7-7-7-7-7-7-7-7-7-7-7-7-7---|


|---------------------------------|-----------------|------------------|
|---------------------------------|-----------------|------------------|
|---------------------------------|-4-4-4-4-4-4-4-4-|-8-8-8-8-8-8-8-8--|
|-5-5-5-5-5-5-5-5-5-5-5-5-5-5-5-5-|-4-4-4-4-4-4-4-4-|-8-8-8-8-8-8-8-8--|
|-5-5-5-5-5-5-5-5-5-5-5-5-5-5-5-5-|-2-2-2-2-2-2-2-2-|-6-6-6-6-6-6-6-6--|
|-5-5-5-5-5-5-5-5-5-5-5-5-5-5-5-5-|-----------------|------------------|

After this there is an absolutely beautiful moment where there is just violin and voice.


   Breakdown
Sorry about this part, the notes are really hard to hear 
cause the guitars so distorted and so muted, 
im not sure its very correct, but if you know it please comment and I will change it.
    PM------------------------------------------------------------------|
||------------------|-----------------|-----------------|-------------------||
||o-----------------|-----------------|-----------------|------------------o||
||------------------|-----------------|-----------------|-------------------||
||------------------|-----------------|-----------------|-------------------||
||o-2-2-2-2-2-2-2-2-|-4-4-4-4-4-4-4-4-|-5-5-5-5-5-5-5-5-|-5-5-5-5-5-5-5-5--o||
||--2-2-2-2-2-2-2-2-|-4-4-4-4-4-4-4-4-|-5-5-5-5-5-5-5-5-|-4-4-4-4-4-4-4-4---||

After this play the chorus and the the guitar intro as an outro.


comments
print report bad tab
I want to post or [tab]
guest
You may want to rate the tab now too:
select rating
Please do not post tabs as comments. Select "correction" instead!