Oops, an error
Loading. Please wait.

Never Be The Same bass

by RED
2,971 views 3 this week
1 commentread comment
1 2 3 4 5
x 4
add to favorites
×
Save as Personal and add changes to this tab that will be seen only by you. Learn more ›
×
You can save this tab as Personal to edit and correct it or add notes. All changes will be seen only by you. Learn more »
launch autoscroll
font size
0
reset
guitar tuner
edit
Autoscroll
slow
fast
+/-
esc
set tempo
stop
Author
Song: Never Be The Same
Artist: RED
Tuning: Standard


Verse (0:25)

|--------------------------------------------------------------|
|--------------------------------------------------------------|
|---------------4----4-----------------------------------------|
|2----2-6-6--6---------4-4--4----2----2-6-6--6--4----4-4--4---4|


Chorus (0:37)

|------------------------------------|
|------------------------------------|
|------------------44444444----------|
|22222222-66666666----------44444444-| (x2)


Verse (1:02)


|--------------------------------------------------------------|
|--------------------------------------------------------------|
|---------------4----4-----------------------------------------|
|2----2-6-6--6---------4-4--4----2----2-6-6--6--4----4-4--4---4| (x2)


Chorus (1:26)

|------------------------------------|
|------------------------------------|
|------------------44444444----------|
|22222222-66666666----------44444444-| (x2)


Bridge (1:51)

|------------------------------------------------------------------------------|
|------------------------------------------------------------------------------|
|1-1-1---1-1-1---1---4-4-4---4-4-4---4---6-6-6---6-6-6---6---9-9-9-9-11-11-8-8-|
|------------------------------------------------------------------------------| (x2)


|-------------------------------------------------------------------|
|-------------------------------------------------------------------|
|1-1-1-1-1-1-1-1-1-4-4-4-4-4-4-4-4-6-6-6-6-6-6-6-6-9-9-9-9-11-11-8-8|
|-------------------------------------------------------------------|


(2:37) Just play this to lead into the Chorus...

|------------------|
|------------------|
|------------------|
|4-4-4-4-4-4-4-4-4-|


Chorus (2:40)

|------------------------------------|
|------------------------------------|
|------------------44444444----------|
|22222222-66666666----------44444444-| (repeat until 3:29)


"...No I can't walk away from you." (3:29)

|----------------------------------------------------|
|----------------------------------------------------|
|---------------4----4-------------------------------|
|2----2-6-6--6---------4-4--4----2----2-6-6--6--4~---|

I hope this tab helps! It probably isn't perfect... so if you catch any mistakes, please 
me know. Please rate and comment! (:
Suggest correction
Creating personal tab
Creating personal tab
You can edit any tab online and save it as your Personal.

You can edit, replace or remove any tab part or add personal notes – all changes will be seen only by you.

Personal tabs can be accessed anytime from any device, even offline.
Learn more »
comments
print report bad tab
1 comment total.
0 reply
TheBassMeister 140 Jul 25, 2013 05:12 PM

No mistakes here, mate! A great tab, thanks for posting it. :D

guest
You may want to rate the tab now too:
select rating
Wanna post a correction for this tab? Suggest correction