Oops, an error
Loading. Please wait.

Of These Chains tab

by RED
632 views 1 this week
no commentswrite comment
1 2 3 4 5
3 more votes to show rating
add to favorites
×
Save as Personal and add changes to this tab that will be seen only by you. Learn more ›
×
You can save this tab as Personal to edit and correct it or add notes. All changes will be seen only by you. Learn more »
launch autoscroll
font size
0
reset
how to read this tab
guitar tuner
edit
Autoscroll
slow
fast
+/-
esc
set tempo
stop
Author
Difficulty
-------------------------------------------------------------------------------
                           Of These Chains - Red
-------------------------------------------------------------------------------
Tabbed by: StevenBeaven90
E-mail: stevenkotelnikov@Gmail.com
Feel free to email me if you have any questions about this tab or any other of my tabs.

The following youtube link shows me playing various parts of this tab 

http://youtu.be/idi7TBnp9Mg

Thanks to Aqeel Sadiq (youtuber) for uploading the instrumental version 
of "Of These Chains" to youtube since it allowed me to hear the notes very 
clearly compared to my own method.

Tuning: Standard 
(On a standardly tuned acoustic guitar, some of the piano notes are played on the fret
closer to the guitar's sound hole. Since these frets can be tough to play, 
I tabbed this song one octave lower on some parts when it was convenient.) 

[Intro](0:00-0:18)
Piano + Strings (x2)
e|-------------12----------------------12------------------------------------|
B|-13----13----------13----13----13----------13------------------------------|
G|----14----14----14----14----14----14----14----14---------------------------|
D|---------------------------------------------------------------------------|
A|---------------------------------------------------------------------------|
E|---------------------------------------------------------------------------|

e|----12----12----12----12----12----12----12----12---------------------------|
B|---------------------------------------------------------------------------|
G|-12----12----12----12----12----12----12----12------------------------------|
D|---------------------------------------------------------------------------|
A|---------------------------------------------------------------------------|
E|---------------------------------------------------------------------------|

[Verse I](0:18-0:36)
Piano
e|-------0---------------------0-----------1---------------------------------|
B|------------0-----1--------------------------------------------------------|
G|-2---------------------0-----------2---------------------------------------|
D|----2----------2----------0-----0-----0-----0------------------------------|
A|---------------------------------------------------------------------------|
E|---------------------------------------------------------------------------|

e|-------0-----------------------0-----------0-------------------------------|
B|-------------0-----1-----------------0-------------------------------------|
G|-2-----------------------0-------------------------------------------------|
D|----2-----2-----2-----2-----0-----0------0----0----------------------------|
A|---------------------------------------------------------------------------|
E|---------------------------------------------------------------------------|

[Pre-chorus I](0:36-0:56)
Piano
e|---------------------------------------------------------------------------|
B|---------------------------------------------------------------------------|
G|-----2---2--------2---2--------0---0----------0----------------------------|
D|-3-3---3------3-3---3------2-2---2------2---2------------------------------|
A|---------------------------------------------------------------------------|
E|---------------------------------------------------------------------------|

e|--------------------------------------------12----12--------12--12---------|
B|-----------------------------------------------12--------------------------|
G|-----2---2--------2---2--------0---0------9---------------9----------------|
D|-3-3---3------3-3---3------2-2---2------6---------------6------------------|
A|---------------------------------------------------------------------------|
E|---------------------------------------------------------------------------|

[Chorus I](0:56-1:32)
Piano
e|-----0---0-------------------------------------8-7-------------------------|
B|------------------1-----------1---1--------3-------8-----------------------|
G|-2--------------2-----------0----------0-------------7---------------------|
D|---2---2------3-----3-----2-----2--------0---0-----------------------------|
A|---------------------------------------------------------------------------|
E|---------------------------------------------------------------------------|

e|-----0---0-------------------------------------8-7-------------------------|
B|------------------1-----------1---1--------3-------8-----------------------|
G|-2--------------2-----------0----------0-------------7---------------------|
D|---2---2------3-----3-----2-----2--------0---0-----------------------------|
A|---------------------------------------------------------------------------|
E|---------------------------------------------------------------------------|

e|-8-7-8-7-8-7-8-7-8-7-8-7-8-7-8-7-10-8-7---10-8-7---10--------10------------|
B|----------------------------------------8--------8----10-8-7----10-8-7-----|
G|---------------------------------------------------------------------------|
D|---------------------------------------------------------------------------|
A|---------------------------------------------------------------------------|
E|---------------------------------------------------------------------------|

e|-8-7-8-7-8-7-15-15--13---8--10-12--7-8-7-8-7-8-7-8-7-8-7-8-7-8-7-----------|
B|---------------------------------------------------------------------------|
G|---------------------------------------------------------------------------|
D|---------------------------------------------------------------------------|
A|---------------------------------------------------------------------------|
E|---------------------------------------------------------------------------|

[Post-chorus I](1:32-1:41)
Piano + Strings
e|-8----8----12----8----8----8----12----8------------------------------------|
B|---10---10----10---10---10---10----10---10---------------------------------|
G|---------------------------------------------------------------------------|
D|---------------------------------------------------------------------------|
A|---------------------------------------------------------------------------|
E|---------------------------------------------------------------------------|

e|-7---7---7---7---8---8---8---7---------------------------------------------|
B|---5---5---5---5---5---5---5---5-------------------------------------------|
G|---------------------------------------------------------------------------|
D|---------------------------------------------------------------------------|
A|---------------------------------------------------------------------------|
E|---------------------------------------------------------------------------|

[Verse II](1:41-1:58)
Piano
e|---------0------------------------------0---------------1---1-0------------|
B|-----------------0-------1-------------------------------------------------|
G|-2---2-------2-------2-------2--0---2-------2---2---2----------------------|
D|---2---2---2---2---2---2---2------2---2---2---2---2---2---2----------------|
A|---------------------------------------------------------------------------|
E|---------------------------------------------------------------------------|

e|---------0------------------------------0---------------0------------------|
B|-----------------0-------1-------------------------------------------------|
G|-2---2-------2-------2-------2--0---2-------2---2---2-------2--------------|
D|---2---2---2---2---2---2---2------2---2---2---2---2---2---2---2------------|
A|---------------------------------------------------------------------------|
E|---------------------------------------------------------------------------|

[Pre-chorus II](1:58-2:27)
Strings 
e|-13-12-------13-12-------13-12-------13-12---------------------------------|
B|-------13-10-------13-10-------13-10-------13-10---------------------------|
G|---------------------------------------------------------------------------|
D|---------------------------------------------------------------------------|
A|---------------------------------------------------------------------------|
E|---------------------------------------------------------------------------|

e|-12-10-------12-10-------12-10-------12-10---------------------------------|
B|-------12----------12----------10----------10------------------------------|
G|----------12----------12----------11----------11---------------------------|
D|---------------------------------------------------------------------------|
A|---------------------------------------------------------------------------|
E|---------------------------------------------------------------------------|

e|-13-12-------13-12-------13-12-------13-12---------------------------------|
B|-------13-10-------13-10-------13-10-------13-10---------------------------|
G|---------------------------------------------------------------------------|
D|---------------------------------------------------------------------------|
A|---------------------------------------------------------------------------|
E|---------------------------------------------------------------------------|

e|-12-10-------12-10-------12-10-------12-10---------------------------------|
B|-------12----------12----------10----------10------------------------------|
G|----------12----------12----------11----------11---------------------------|
D|---------------------------------------------------------------------------|
A|---------------------------------------------------------------------------|
E|---------------------------------------------------------------------------|

e|-------------12----------------------12------------------------------------|
B|-13----13----------13----13----13----------13------------------------------|
G|----14----14----14----14----14----14----14----14---------------------------|
D|---------------------------------------------------------------------------|
A|---------------------------------------------------------------------------|
E|---------------------------------------------------------------------------|

e|-----------12------------------12------------------------------------------|
B|-12---12--------12---12---12-----------------------------------------------|
G|----9----9----9----9----9----9---------------------------------------------|
D|---------------------------------------------------------------------------|
A|---------------------------------------------------------------------------|
E|---------------------------------------------------------------------------|
(The tempo slows down for the last five notes)

Piano
e|-13----13----13----13----12---12---12---12---------------------------------|
B|---------------------------------------------------------------------------|
G|----10----10----10----10----9----9----9----9-------------------------------|
D|---------------------------------------------------------------------------|
A|---------------------------------------------------------------------------|
E|---------------------------------------------------------------------------|

e|-10---10-12-10---10-12-10---10-12-10---10-12-------------------------------|
B|---------------------------------------------------------------------------|
G|----7----------7----------7----------7-------------------------------------|
D|---------------------------------------------------------------------------|
A|---------------------------------------------------------------------------|
E|---------------------------------------------------------------------------|

e|-13----13----13----13----12---12---12---12---------------------------------|
B|---------------------------------------------------------------------------|
G|----10----10----10----10----9----9----9----9-------------------------------|
D|---------------------------------------------------------------------------|
A|---------------------------------------------------------------------------|
E|---------------------------------------------------------------------------|

e|-10---10-12-10---10-12-10---10-12-10---10-12-------------------------------|
B|---------------------------------------------------------------------------|
G|----7----------7----------7----------7-------------------------------------|
D|---------------------------------------------------------------------------|
A|---------------------------------------------------------------------------|
E|---------------------------------------------------------------------------|

e|-13-12-------13-12-------13-12---------------------------------------------|
B|-------13-10-------13-10-------13-10---------------------------------------|
G|---------------------------------------------------------------------------|
D|---------------------------------------------------------------------------|
A|---------------------------------------------------------------------------|
E|---------------------------------------------------------------------------|

e|-----------12------------------12------------------------------------------|
B|-12---12--------12---12---12-----------------------------------------------|
G|----9----9----9----9----9----9---------------------------------------------|
D|---------------------------------------------------------------------------|
A|---------------------------------------------------------------------------|
E|---------------------------------------------------------------------------|
(The tempo slows down for the last five notes)

[Piano Solo](2:27-2:35)
Piano
e|-8-0----0-12-0-15-15----13-----8--10-12------8---8---12-12-----------------|
B|-----10------------------------------------8---8---8-----------------------|
G|----------------------------10----------10---------------------------------|
D|---------------------------------------------------------------------------|
A|---------------------------------------------------------------------------|
E|---------------------13----------------------------------------------------|

Strings (come in @ 2:33)
e|-------------------------------------12------------------------------------|
B|-------------------13-12----------12---------------------------------------|
G|-------------------------13----13------------------------------------------|
D|----------------------------14---------------------------------------------|
A|---------------------------------------------------------------------------|
E|---------------------------------------------------------------------------|

[Chorus II](2:35-3:13)
Guitar Chords

Am  F  C  G  (x2) (2:35-2:54)

F   F  G  D  (2:54-3:03)

Am  F  C  G  (3:03-3:13)

[Outro](3:13-3:53)
Strings (3:13-3:31)
e|----12----13--------12----------------------------12----------------10-----|
B|------------------------------13--------12---------------------------------|
G|---------------------------------------------------------------------------|
D|---------------------------------------------------------------------------|
A|---------------------------------------------------------------------------|
E|---------------------------------------------------------------------------|

(3:31-3:53)
e|-13--------17----13----12----------------------12--------10----------------|
B|-----------------------------------10--12--13----------------------13------|
G|---------------------------------------------------------------------------|
D|---------------------------------------------------------------------------|
A|---------------------------------------------------------------------------|
E|---------------------------------------------------------------------------|

************************************

| /   slide up
| \   slide down
| x   Mute note

************************************

            
            
Suggest correction
Creating personal tab
Creating personal tab
You can edit any tab online and save it as your Personal.

You can edit, replace or remove any tab part or add personal notes – all changes will be seen only by you.

Personal tabs can be accessed anytime from any device, even offline.
Learn more »
Give kudos to tab author, rate the tab!
1 2 3 4 5
comments
print report bad tab
guest
You may want to rate the tab now too:
select rating
Wanna post a correction for this tab? Suggest correction