Oops, an error
Loading. Please wait.

Shadows bass

version 1
version 1

Whole song

Interactive

by RED
3,153 views 3 this week
2 commentsread comments
1 2 3 4 5
1 last vote to show rating
add to favorites
×
Save as Personal and add changes to this tab that will be seen only by you. Learn more ›
×
You can save this tab as Personal to edit and correct it or add notes. All changes will be seen only by you. Learn more »
launch autoscroll
font size
0
reset
guitar tuner
edit
Autoscroll
slow
fast
+/-
esc
set tempo
stop
Half-Step Down 5 string

Come in at 0:03                                                    x2
Gb| |-------------------------------------------------------------| |
Db|o|-------------------------------------------------------------|o|
Ab| |-------------------------------------------------------------| |
Eb|o|-------------------------------------------------------------|o|
Bb| |-1-0-1h3-0--1-0-1h3-0--1-0-1h3-1-0-1h3-0--1-0-1h3-0--1-0-1h3-| |

| |-----------------------------------------------------------------|
|o|-----------------------------------------------------------------|
| |-----------------------------------------------------------------|
|o|-----------------------------------------------------------------|
| |-5-5-5-5-5-5-5-5-5-5-5-5-5-5-5-5-3-3-3-3-3-3-3-3-3-3-3-3-3-3-3-3-|
                                                                   x2
|-----------------------------------------------------------------| |
|-----------------------------------------------------------------|o| 
|-----------------------------------------------------------------| |
|---------------------------------3-3-3-3-3-3-3-3-2-2-2-2-2-2-2-2-|o|
|-1-1-1-1-1-1-1-1-1-1-1-1-1-1-1-1---------------------------------| |

|-----------------------------------------------------------------|
|-----------------------------------------------------------------|
|-7-7-7-7-7-7-7-7-7-7-7-7-7-7-7-7-5-5-5-5-5-5-5-5-5-5-5-5-5-5-5-5-|
|-----------------------------------------------------------------|
|-----------------------------------------------------------------|

|---------------------------------------------------------------------|
|---------------------------------------------------------------------|
|-3-3-3-3-3-3-3-3-3-3-3-3-3-3-3-3-------------------------------------|
|---------------------------------3-3-3-3-3-3-3-3-2-2-2-2-2-2-2-2-3~~~|
|---------------------------------------------------------------------|
                                                                         x2
| |---------------------------------------------------------------------| |
|o|---------------------------------------------------------------------|o|
| |---------------------------------------------------------------------| |
|o|-3--3--3-3--3--3--2--2--2-2--2--2------------------------------------|o|
| |-----------------------------------5--5--5-5--5--5--3--3--3-3--3--3--| |

                                                                 x2
| |-------------------------------------------------------------| |
|o|-------------------------------------------------------------|o|
| |-------------------------------------------------------------| |
|o|-------------------------------------------------------------|o|
| |-1-0-1h3-0--1-0-1h3-0--1-0-1h3-1-0-1h3-0--1-0-1h3-0--1-0-1h3-| |

|-----------------------------------------------------------------|
|-----------------------------------------------------------------|
|-----------------------------------------------------------------|
|-----------------------------------------------------------------|
|-5-5-5-5-5-5-5-5-5-5-5-5-5-5-5-5-3-3-3-3-3-3-3-3-3-3-3-3-3-3-3-3-|
                                                                   
|-----------------------------------------------------------------|
|-----------------------------------------------------------------| 
|-----------------------------------------------------------------|
|---------------------------------3-3-3-3-3-3-3-3-2-2-2-2-2-2-2-2-|
|-1-1-1-1-1-1-1-1-1-1-1-1-1-1-1-1---------------------------------|

|-----------------------------------------------------------------|
|-----------------------------------------------------------------|
|-7-7-7-7-7-7-7-7-7-7-7-7-7-7-7-7-5-5-5-5-5-5-5-5-5-5-5-5-5-5-5-5-|
|-----------------------------------------------------------------|
|-----------------------------------------------------------------|

|---------------------------------------------------------------------|
|---------------------------------------------------------------------|
|-3-3-3-3-3-3-3-3-3-3-3-3-3-3-3-3-------------------------------------|
|---------------------------------3-3-3-3-3-3-3-3-2-2-2-2-2-2-2-2-3~~~|
|---------------------------------------------------------------------|
                                                                         x2
| |---------------------------------------------------------------------| |
|o|---------------------------------------------------------------------|o|
| |---------------------------------------------------------------------| |
|o|-3--3--3-3--3--3--2--2--2-2--2--2------------------------------------|o|
| |-----------------------------------5--5--5-5--5--5--3--3--3-3--3--3--| |

Short Pause

| |------------------------------------------------------|
|o|------------------------------------------------------|
| |------------------------------------------------------|
|o|----------------------------------------------5~---7~-|
| |-0-0-0-0-1-0-0--0-0-0-1-0-0--0-0-0-0-1-0-0--0----0----|
                                                            x2
|----------------------------------------------------------| |
|----------------------------------------------------------|o|
|----------------------------------------------------------| |
|----------------------------------------------5~---7-7-7~-|o|
|-0-0-0-0-1-0-0--0-0-0-1-0-0--0-0-0-0-1-0-0--0----0--------| |

Short Pause
                                                                         x2
| |---------------------------------------------------------------------| |
|o|---------------------------------------------------------------------|o|
| |---------------------------------------------------------------------| |
|o|-3--3--3-3--3--3--2--2--2-2--2--2------------------------------------|o|
| |-----------------------------------5--5--5-5--5--5--3--3--3-3--3--3--| |
                                                                 x2
| |-------------------------------------------------------------| |
|o|-------------------------------------------------------------|o|
| |-------------------------------------------------------------| |
|o|-------------------------------------------------------------|o|
| |-1-0-1h3-0--1-0-1h3-0--1-0-1h3-1-0-1h3-0--1-0-1h3-0--1-0-1h3-| |

END

            
            
Suggest correction
Creating personal tab
Creating personal tab
You can edit any tab online and save it as your Personal.

You can edit, replace or remove any tab part or add personal notes – all changes will be seen only by you.

Personal tabs can be accessed anytime from any device, even offline.
Learn more »
Give kudos to tab author, rate the tab!
1 2 3 4 5
comments
print report bad tab
2 comments total.
0 reply
joel94 154 Apr 05, 2010 05:38 PM

every other time you play the -1-0-1h3-0- it should be
-1-0-1h4-0

0 reply
TheBassMeister 140 Jul 23, 2013 12:06 PM

Nice tab! 100% accurate as far as I can tell. Although I can't figure out how to play the intro riff, so I don't know if that's completely accurate, but it looks close at least. :)

guest
You may want to rate the tab now too:
select rating
Wanna post a correction for this tab? Suggest correction