Oops, an error
Loading. Please wait.

The Moment We Come Alive Tab

by RED
1,599 views 3 this week
no commentswrite comment
1 2 3 4 5
excellent!
x 4
add to favorites
launch autoscroll
font size
0
reset
how to read this tab
guitar tuner
Tab Pro tools
  • play this tab
  • loop segment
  • change instrument
  • show fretboard
  • metronome
Autoscroll
slow
fast
+/-
esc
set tempo
stop
Contributor
Difficulty
Tuning
novice
C G C F A D
---------------------------------------------------------------------
        The Moment We Come Alive - RED
---------------------------------------------------------------------
Tabbed by: disaster015

Tuning: Drop C (C,G,C,F,A,D)


Intro and verse 1: Only piano and bass


Pre chorus: Guitar 1 (lead)

D|------------------------------------|
A|--------/8-8\7----------------------|
F|------------------------------------|
C|------------------------------------|
G|------------------------------------|
C|------------------------------------|

Chorus: Guitar 1 (lead)

D|---------------------------------------------------------------|
A|---------------------------------------------------------------|
F|--12-12-12-12-12\11-11-11-11\7-7-7-7/9-9-9-9-9-9-9-9-9-9-9-9---|
C|---x--x--x--x--x\-x--x--x--x\x-x-x-x/x-x-x-x-x-x-x-x-x-x-x-x---|x4
G|--10-10-10-10-10\-9--9--9--9\5-5-5-5/7-7-7-7-7-7-7-7-7-7-7-7---|
C|---------------------------------------------------------------|

Chorus: Guitar 2 (Rythm)

D|-------------------------------------------------|
A|-------------------------------------------------|
F|-------------------------------------------------|x3
C|--5--5-5-5---9-9-9-9-9---7-7-7-7-7--2-2-2-2-2----|
G|--5--5-5-5---9-9-9-9-9---7-7-7-7-7--2-2-2-2-2----|
C|--5--5-5-5---9-9-9-9-9---7-7-7-7-7--2-2-2-2-2----|

D|-------------------------------------------------|
A|-------------------------------------------------|
F|-------------------------------------------------|
C|--5--5-5-5---9-9-9-9-9---7-7-7-7-7-7-7-7-7-7-----|
G|--5--5-5-5---9-9-9-9-9---7-7-7-7-7-7-7-7-7-7-----|
C|--5--5-5-5---9-9-9-9-9---7-7-7-7-7-7-7-7-7-7-----|


Post Chorus: Guitar 1 (lead)

D|---------------------------------------|
A|---/10------8-7~~~----/10--8-7-5-5h7---|
F|---------------------------------------|
C|---------------------------------------|
G|---------------------------------------|
C|---------------------------------------|

Post Chorus: Guitar 2 (Rythm)

D|---------------------------------------------------|
A|---------------------------------------------------|
F|---------------------------------------------------|
C|--9-9-9-9-9-9--5-5-5-5-5--0-0-0-0-0-0--2-2-2-2-2---|
G|--9-9-9-9-9-9--5-5-5-5-5--0-0-0-0-0-0--2-2-2-2-2---|
C|--9-9-9-9-9-9--5-5-5-5-5--0-0-0-0-0-0--2-2-2-2-2---|


Verse 1: Only guitar 1 (lead)

D|------------------------------------|
A|------7---7-7---7---8-8-7-----------|
F|--7-7---7-----7---7-----------------|x3
C|------------------------------------|
G|------------------------------------|
C|------------------------------------|

D|------------------------------------|
A|------7---7-7---7---10-10-8---------|
F|--7-7---7-----7---7-----------------|
C|------------------------------------|
G|------------------------------------|
C|------------------------------------|

D|------------------------------------|
A|------7---7-7---7---8-8-7-----------|
F|--7-7---7-----7---7-----------------|
C|------------------------------------|
G|------------------------------------|
C|------------------------------------|

D|--------------------------------------------------|
A|------7---7-7---7---8-8-7-8-10---8------7-8-5-----|
F|--7-7---7-----7---7-------------------7-----------|
C|--------------------------------------------------|
G|--------------------------------------------------|
C|--------------------------------------------------|


Chorus: same as the first chorus


Bridge: Guitar 2 (Rythm)

D|----------------------------------------------------|
A|----------------------------------------------------|
F|----------------------------------------------------|
C|--9-9-9-9-9-9--5-5-5-5-5--0-0-0-0-0-0-0-0-0---2-2---|x3
G|--9-9-9-9-9-9--5-5-5-5-5--0-0-0-0-0-0-0-0-0---2-2---|
C|--9-9-9-9-9-9--5-5-5-5-5--0-0-0-0-0-0-0-0-0---2-2---|

D|------------------------------------|
A|------------------------------------|
F|------------------------------------|
C|--5-5-5-5-5-5-5-5---7-7-7-7-7-7-7---|
G|--5-5-5-5-5-5-5-5---7-7-7-7-7-7-7---|
C|--5-5-5-5-5-5-5-5---7-7-7-7-7-7-7---|


Final chorus: same as the first and second chorus


Outro: Guitar 2 (Rythm)

D|---------------------------------------------------------|
A|---------------------------------------------------------|
F|---------------------------------------------------------|
C|--0-0-0-0-0-0---5-5-5-5-5-5---9-9-9-9-9-9---5-5-5-5-5-5--|x2
G|--0-0-0-0-0-0---5-5-5-5-5-5---9-9-9-9-9-9---5-5-5-5-5-5--|
C|--0-0-0-0-0-0---5-5-5-5-5-5---9-9-9-9-9-9---5-5-5-5-5-5--|

End with this

D|------|
A|--3---|
F|--2---|
C|--0---|
G|--0---|
C|--0---|

************************************

| /   slide up
| \   slide down
| h   hammer-on
| p   pull-off
| ~   vibrato
| +   harmonic
| x   Mute note
| b   Bend
| pb  Pre-bend
| br  Bend release
| pbr Pre-bend release
| brb Bend release bend

************************************
comments
print report bad tab
I want to post or [tab]
guest
You may want to rate the tab now too:
select rating
Please do not post tabs as comments. Select "correction" instead!