Oops, an error
Loading. Please wait.

Fine Day Tab

40 views 1 this week
no commentswrite comment
1 2 3 4 5
please rate
add to favorites
launch autoscroll
font size
0
reset
how to read this tab
guitar tuner
Autoscroll
slow
fast
+/-
esc
set tempo
stop
Help us to improve Ultimate-Guitar.com Take our survey!
×
Author
Difficulty
Tuning
haydeN64 289
novice
D# G# C# F# A# D#
Red Bacteria Vacuum - Fine Day
Album: Killer Dust (2004)
Tuning: Half a step down
Tabbed by Hayden (HaydeN64) 07/02/13

Key: 
     /  = slide up
[pause] = self explanatory


Chorus
eb|---------------------------------------------------------|
Bb|---------------------------------------------------------|
Gb|---------------9--9-9--9-9-9-6--6-6--6-6-6-7--7-7--7-7-7-|
Db|-7--7-7--7-7-7-9--9-9--9-9-9-6--6-6--6-6-6-7--7-7--7-7-7-|
Ab|-7--7-7--7-7-7-7--7-7--7-7-7-4--4-4--4-4-4-5--5-5--5-5-5-|
Eb|-5--5-5--5-5-5-------------------------------------------|

Verse
eb|---------------------------------------------------------|
Bb|---------------------------------------------------------|
Gb|---------------7--7-7--7-7-7---------------9--9-9--9-9-9-|
Db|-9--9-9--9-9-9-7--7-7--7-7-7-7--7-7--7-7-7-9--9-9--9-9-9-|
Ab|-9--9-9--9-9-9-5--5-5--5-5-5-7--7-7--7-7-7-7--7-7--7-7-7-|
Eb|-7--7-7--7-7-7---------------5--5-5--5-5-5---------------|

Interlude part 1
eb|-------------------------------------------------|
Bb|-------------------------------------------------|
Gb|---------------7--7-7--7-7-7-11--11-11--11-11-11-|
Db|-9--9-9--9-9-9-7--7-7--7-7-7-11--11-11--11-11-11-|
Ab|-9--9-9--9-9-9-5--5-5--5-5-5-9---9--9---9--9--9--|
Eb|-7--7-7--7-7-7-----------------------------------|

Interlude part 2
eb|-----------------------------------------------------------------|
Bb|-----------------------------------------------------------------|
Gb|-8/9--9-9--9-9-9-8/9--9-9--9-9-9-8/9-9-9-8/9-9-9-8/9--9-9--9-9-9-|
Db|-8/9--9-9--9-9-9-8/9--9-9--9-9-9-8/9-9-9-8/9-9-9-8/9--9-9--9-9-9-|
Ab|-6/7--7-7--7-7-7-6/7--7-7--7-7-7-6/7-7-7-6/7-7-7-6/7--7-7--7-7-7-|
Eb|-----------------------------------------------------------------|

Breakdown
eb|-----------------------------|  |-----------------------|
Bb|-----------------------------|  |-----------------------|
Gb|-------------8-9-9-9-8-9-9-9-|  |-------------9-[Pause]-|
Db|-9--9-9--7-7-8-9-9-9-8-9-9-9-|  |-9--9-9--7-7-9-[Pause]-|
Ab|-9--9-9--7-7-6-7-7-7-6-7-7-7-|  |-9--9-9--7-7-7-[Pause]-|
Eb|-7--7-7--5-5-----------------|A |-7--7-7--5-5-----------|B

Order:
Chorus x 8
Verse  x 3
interlude Part 1 
Interlude Part 2 
Chorus x 4
Verse  x 3
Interlude part 1 
interlude part 2
Breakdown: 
A x 3
B x 1
A x 3
B x 1
A x 8
Chorus x 14: 6 bars clean -> 4 distorted -> 4 changed tempo. 
Finish on an Eb|5 power chord and let it ring. 

---------------------------------------------------------------------------------------||
Notes

- On the last 'Chorus' there, The strumming and tempo changes around a little on the 
  different sections. It's the same chords, so i didn't feel it was necessary to tab
  it out but if you listen to the song you should know what to do. 
- The gaps on the interlude where the Ab|9's are look bigger than the rest but the tempo
  is the same rhythm as the other notes, i just couldn't cram the 11's next to eachother.
- On the 6th bar of the clean section during the chorus, hit distortion on the Ab|5.
- Any questions or corrections? feel free to ask/suggest. 


Suggest correction
What's this?
You can suggest a correction to this tab. Community and Mods will review your correction and vote to approve or reject it.
comments
We did not receive enough feedback on this tab! Please rate:
print report bad tab
1 2 3 4 5
guest
You may want to rate the tab now too:
select rating
Please do not post tabs as comments. Select "correction" instead!