Oops, an error
Loading. Please wait.

Summer 301 Tab

717 views 1 this week
no commentswrite comment
1 2 3 4 5
2 more votes to show rating
add to favorites
launch autoscroll
font size
0
reset
how to read this tab
guitar tuner
Autoscroll
slow
fast
+/-
esc
set tempo
stop
Help us to improve Ultimate-Guitar.com Take our survey!
×
Author
Difficulty
Capo
novice
2nd fret
-------------------------------------------------------------------------------
                        Summer 301 - Red Car Wire
-------------------------------------------------------------------------------

Tabbed By: Michael -(Scetils)
Email: scetils_michael@hotmail.com

Tunning: Standard With (CAPO ON 2nd FRET)

e|-----------------------------------------------------------------|
B|-6-----6----------6------6---------------------------------------|
G|-6---6---6--------6----6-----------------------------------------|
D|-6-6-------6------4--4---------6--6---6--6-----------------------|
A|-4-----------4----4------------6--6---6--6-----------------------|
E|------------------2------------4--4---4--4-----------------------|

  So here's the summer picture... Straight for your heart

-In the recording it's not picked but you can do that ^ or just strum


VERSE
e|------------------------------------------------------------------|
B|------------------------------------------------------------------|
G|-6--6-------------------------------------------------------------|
D|-6--6-x16---4-----6-----------------------------------------------|
A|-4--4-------4-x8--6-x8--------------------------------------------|
E|------------2-----4-----------------------------------------------|
 PM   *       *     *
  And when the whole things over...


e|------------------------------------------------------------------|
B|------------------------------------------------------------------|
G|-6--6-------------------------------------------------------------|
D|-6--6-x15--4--4----6--6-------------------------------------------|
A|-4--4------4--4-x7-6--6-x7----------------------------------------|
E|-----------2--2----4--4-------------------------------------------|
      *         *       *
  And this is the way we do it...


e|------------------------------------------------------------------|
B|------------------------------------------------------------------|
G|-6--6-------------------------------------------------------------|
D|-6--6-x15--4-----------6----6-6-----------------------------------|
A|-4--4------4-----------6----6-6-----------------------------------|
E|-----------2-----------4----4-4-----------------------------------|
      *
   And our sparks...   ...It's summer...


Riff (or) Little What Ever You Wanna Call It 
e|-------------------------------------------------------------------------|
B|-------------------------------------------------------------------------|
G|-6--5-5--6-6----13--5-5--6-6-----13--5-5--6------13--5-5--6-6--5-5--8-8--|
D|-x--x-x--x-x----x---x-x--x-x-----x---x-x--x-x6---x---x-x--x-x--x-x--x-x--|
A|-4--3-3--4-4----11--3-3--4-4-----11--3-3--4------11--3-3--4-4--3-3--6-6--|
E|-------------------------------------------------------------------------|


Pre-Verse 2
e|-------------------------------------------------------------------|
B|--6------------6-----------6---------------------------------------|
G|--6------------6-----------6---------------------------------------|
D|--6------------6-----------4---------6-----------------------------|
A|--4------------4-----------4---------6-----------------------------|
E|---------------4-----------2---------4-----------------------------|

   I play with girls emotions...


VERSE 2 (Similar to verse 1, just work out what bits gets muted or note)



CHORUS
e|-------------------------------------------------------------------|
B|--6-----6-----6-----6----------------------------------------------|
G|--6-----6-----6-----6----------------------------------------------|
D|--6-x8--6-x8--4-x8--6-x8-------------------------------------------|
A|--4-----6-----4-----6----------------------------------------------|
E|--------4-----2-----4----------------------------------------------|

  I miss the summer...


POST CHORUS
e|-------------------------------9------------11--9-----9h11p9--16---|
B|----------------------------------9----------------9---------------|
G|--6-6--6-/-8-/-6------6---6----------10----------------------------|
D|--x-x--x-/-x-/-x------6---6----------------------------------------|
A|--4-4--4-/-6-/-4------4---4----------------------------------------|
E|--------------------------4----------------------------------------|

Pre-Verse 3
e|----------9-------------------11--9-----9--------------------------|
B|------------9------------------------9-----------------------------|
G|--6----6------10---11----------------------------------------------|
D|--6----6--------------11-------------------------------------------|
A|--4----4-----------------------------------------------------------|
E|-------4----------2------------------------------------------------|
   
   This season brings us closer...

Verse 3 (similar to verse 1 again)


CHORUS

Break
e|-------------------------------------------------------------------|
B|-------------------------------------------------------------------|
G|--6----[6]-----[6]---x-x------[6]-----[6]--x-x----6-5--------------|
D|--x-------[6]--------x-x----------[6]------x-x----x---6------------|
A|--4------------------x-x-------------------x-x----4----------------|
E|-------------------------------------------------------------------|
[-]=Harmonic
   Do you miss me, baby do you miss me...

BASS SOLO-On G-Tar (this is how it is roughly played on bass)
G|--13-11-10-11--13-11-10-11-10--------------------------------------|
D|------------------------------11h13p11-----------------------------|
A|-------------------------------------------------------------------|
E|-------------------------------------------------------------------|


G|--13-11-10-11--13-11-10-11-10------------13-11-10-11--13-11-10-11-10---------|
D|------------------------------10h11p10-------------------------------11h13p11|
A|-----------------------------------------------------------------------------|
E|-----------------------------------------------------------------------------|


Bass solo cont. (When g-tar starts just strumming chords play this)
G|-----------------------------------------------------------------------------|
D|--------------------3---------------6-4-3-4--6-4-3-4---4-3-3-----------------|
A|--4-3-4-3-6-4-3-4-3---4-3-4-6-4-3----------------------------4--4h6p4--------|
E|-----------------------------------------------------------------------------|


  Bass solo cont. (it gets hard to hear here)
G|---13--11-10h11--13-11-10-11--------------------13-11-10-11/18---13-11-10-------------|
D|------------------------------10-11-13-11-10------------------------------11-13-11-10-|
A|--------------------------------------------------------------------------------------|
E|--------------------------------------------------------------------------------------|



GUITAR Pre-solo
e|-------------------------------------------------------------------|
B|-------------------------------------------------------------------|
G|-6--6-6--6-6--6-6--6--6--6/8/6-----6-6--6-6--10-10--8--6-6/8/6-----|
D|-x--x-x--x-x--x-x--x--x--x/x/x-----x-x--x-x--x--x---x--x-x/x/x-----|
A|-4--4-4--4-4--4-4--4--4--4/6/4-----4-4--4-4--8--8---6--4-4/6/4-----|
E|-------------------------------------------------------------------|


e|-------------------------------------------------------------------|
B|--6----6----6----6-6-6----6----------------------------------------|
G|--6----6----6----6-6-6----6----------------------------------------|
D|--6----4----6----6-6-6----6----------------------------------------|
A|--4----4----4----3-4-6----3----------------------------------------|
E|-------2-----------------------------------------------------------|


SOLO
e|-------------------------------9----9h11p9--9----13h14p13----------|
B|-/9-9-7-6-7----9-7---6h7p6--------9-----------9-----------14-------|
G|------------6------6-------6---------------------------------------|
D|-------------------------------------------------------------------|
A|-------------------------------------------------------------------|
E|-------------------------------------------------------------------|


e|--16-14-13h14--16-14-13h14p13------16-14-13h14p13--16-14-13-13h14p13---|
B|------------------------------14-------------------------------------14|
G|-----------------------------------------------------------------------|
D|-----------------------------------------------------------------------|
A|-----------------------------------------------------------------------|
E|-----------------------------------------------------------------------|

e|-------------------------------------------------------------------|
B|--14^(16161616161616)-16^(181818181818)---14~----------------------|
G|-------------------------------------------------------------------|
D|-------------------------------------------------------------------|
A|-------------------------------------------------------------------|
E|-------------------------------------------------------------------|

Chorus

Ending (Just play chorus till music fades out or try and solo over it)



This is my first ever tab, i tabbed it because there was no Red Car Wire
tabs around and i love playing along to there songs. Hopefully i will tab 
more of their songs and other bands. Thank you heaps and emails on 
corrections and improvements would be nice and PLEASE RATE!!!

http://www.redcarwiremusic.com/

Suggest correction
Give kudos to tab author, rate the tab!
1 2 3 4 5
comments
print report bad tab
guest
You may want to rate the tab now too:
select rating
Wanna post a correction for this tab? Suggest correction