Oops, an error
Loading. Please wait.

Timing Just Isnt Your Thing Tab

version 2
version 2

Intro

Whole song

700 views 3 this week
no commentswrite comment
1 2 3 4 5
please rate
add to favorites
launch autoscroll
font size
0
reset
how to read this tab
guitar tuner
Tab Pro tools
  • play this tab
  • loop segment
  • change instrument
  • show fretboard
  • metronome
Autoscroll
slow
fast
+/-
esc
set tempo
stop
Difficulty
intermediate
Timing Just Isn't Your Thing Tab.It's tabbed by myself!You can play it both with 
e-guitar and acoustic.It's petty easy to figure out how many times you have to play each power 
chord, just listen to the song ;)

Intro
e-------------------- ----------------------|
b-------------------- ----------------------|
g-7--7--11--7--7--9-- -7--7--11--9--7--7--9-|
d-7--5--9---5--7--7-- -7--5--9---7--5--7--7-|
a-5-----9---5--5--7-- -5-----9---7--5--5--7-|
e-------------------- ----------------------|

Verse (She wrote in my yearbook "baby,..)
e-------------------------------|
b-------------------------------|
g-7--7--7--7--7--7--7--7--7-----|
d-7--5--7--5--7--5--7--5--7-----|
a-5-----7-----5-----7-----7-----|
e-------------------------------|

Verse Part 2 (And I tell myself not to get too close...)
e----------------------|
b----------------------|
g-7--7--7--7--7--7--7--|
d-7--5--7--5--7--5--7--|
a-5-----7-----5-----7--|
e----------------------|

Chorus
e------------------- ----------------------|
b------------------- ----------------------|
g-7--7--11--7--7--9- -7--7--11--9--7--7--9-|
d-7--5--9---5--7--7- -7--5--9---7--5--7--7-|
a-5-----9---5--5--7- -5-----9---7--5--5--7-|
e------------------- ----------------------|

Interlude
e------------------|
b------------------|
g---7---7---7---7--|
d-7---7---7---7----|
a------------------|
e------------------|

verse 2 (We've reached the end of this vacation)
e-----------------|
b-----------------|
g-7--7--7--7--7---|
d-7--5--7--5--7---|
a-5-----7-----7---|
e-----------------|

Verse 2 Part 2 (You can bet your eyelashes,prey to god...)
e----------------------|
b----------------------|
g-7--7--7--7--7--7--7--|
d-7--5--7--5--7--5--7--|
a-5-----7-----5-----7--|
e----------------------|

Chorus
e------------------- ----------------------|
b------------------- ----------------------|
g-7--7--11--7--7--9- -7--7--11--9--7--7--9-|
d-7--5--9---5--7--7- -7--5--9---7--5--7--7-|
a-5-----9---5--5--7- -5-----9---7--5--5--7-|
e------------------- ----------------------|

Bridge (cause you lost your shot,..)
e----------------------------------------|
b----------------------------------------|
g-7--7--7--7--7--7--7--7--7--7--7--7--7--|
d----7--7--7--7--7--7-----7--7--7--7--7--|
a-------5--4--5--------------4--5-----7--|
e----------------5--7--------------5-----|


Chorus
e------------------- ----------------------|
b------------------- ----------------------|
g-7--7--11--7--7--9- -7--7--11--9--7--7--9-|
d-7--5--9---5--7--7- -7--5--9---7--5--7--7-|
a-5-----9---5--5--7- -5-----9---7--5--5--7-|
e------------------- ----------------------|

Chorus
e----------------------|
b----------------------|
g-7--7--11--9--7--7--9-|
d-7--5--9---7--5--7--7-|
a-5-----9---7--5--5--7-|
e----------------------|

End (Goodbye..)
e-------------|
b-------------|
g-7--7--9--7--|
d-7--7--7--7--|
a-5--4--7--5--|
e-------------|

I'm pretty sure this one is 100% correct! Enjoy it if you haven't had a good Valentine's 
Day, kidding!
comments
We did not receive enough feedback on this tab! Please rate:
print report bad tab
1 2 3 4 5
I want to post or [tab]
guest
You may want to rate the tab now too:
select rating
Please do not post tabs as comments. Select "correction" instead!