Oops, an error
Loading. Please wait.

No Hope tab

292 views 6 this week
no commentswrite comment
1 2 3 4 5
3 more votes to show rating
add to favorites
×
Save as Personal and add changes to this tab that will be seen only by you. Learn more ›
×
You can save this tab as Personal to edit and correct it or add notes. All changes will be seen only by you. Learn more »
launch autoscroll
font size
0
reset
how to read this tab
guitar tuner
edit
Autoscroll
slow
fast
+/-
esc
set tempo
stop
Red Fang - No Hope (from Whales and Leeches Deluxe Version)

  Tuning
  Drop C - CGCFAd


  Disclaimer
  Red Fang should play this in Standard D, but my guitar is in Drop C and Floyd Rose is a sucker.
  I do like the shape it takes in Drop C, though.
  
  I'd be very thankful if you rated my tab and left a comment. Enjoy!


[Intro]


d|-----|-----|-----|-----|-----|
A|-----|-----|-----|-----|-----|
F|-----|-----|--5--|--6--|--3--|
C|--7--|--7--|--7--|--7--|--7--|
G|-----|-----|-----|-----|-----|
C|-----|-----|-----|-----|-----|


[Verse]

  Figure A               Figure B                    Figure A                Figure C
d|----------------------|---------------------------|-----------------------|---------------------|
A|----------------------|---------------------------|-----------------------|---------------------|
F|----------------------|---------------------------|-----------------------|---------------------|
C|-------xx-5h7-7777777-|-------xx-5h7-777/13-13~~~-|-------xx--5h7-7777777-|---------------------|
G|-5h7-7-xx-------------|-5h7-7-xx------------------|-5h7-7-xx--------------|-5h7-77777p6-6666666-|
C|-5h7-7----------------|-5h7-7---------------------|-5h7-7-----------------|-5h7-77777p6-6666666-|


[Chorus]

  Repeat throughout
d|------------------------|
A|------------------------|
F|------------------------|
C|-5/7-777-8888-7777-1010-|
G|-5/7-777-8888-7777-1010-|
C|-5/7-777-8888-7777-1010-|


[Verse]

  Figure A               Figure B                    Figure A                Figure C
d|----------------------|---------------------------|-----------------------|---------------------|
A|----------------------|---------------------------|-----------------------|---------------------|
F|----------------------|---------------------------|-----------------------|---------------------|
C|-------xx-5h7-7777777-|-------xx-5h7-777/13-13~~~-|-------xx--5h7-7777777-|---------------------|
G|-5h7-7-xx-------------|-5h7-7-xx------------------|-5h7-7-xx--------------|-5h7-77777p6-6666666-|
C|-5h7-7----------------|-5h7-7---------------------|-5h7-7-----------------|-5h7-77777p6-6666666-|


[Chorus]

  Repeat throughout
d|------------------------|
A|------------------------|
F|------------------------|
C|-5/7-777-8888-7777-1010-|
G|-5/7-777-8888-7777-1010-|
C|-5/7-777-8888-7777-1010-|


[Breakdown pt. 1]

  Figure A
d|-------------------------|----------------------|
A|-----3h5-5~------6h5-5~--|------3h5-5~-6-5-3-5--|
F|-------------------------|----------------------|
C|-4-4---------4-4---------|--4-4-----------------|
G|-2-2---------2-2---------|--2-2-----------------|
C|-4-4---------4-4---------|--4-4-----------------|


  Figure B
d|-------------------------|-------------------------|
A|-------------------------|-------------------------|
F|-------------------------|-------------------------|
C|-3-3-2p0-2~--3-3-2p0-2~--|--3-3-2p0-2~-3p2p0-2p0---|
G|-1-1---------1-1---------|--1-1------------------0-|
C|-3-3---------3-3---------|--3-3--------------------|


  Figure A
d|-------------------------|----------------------|
A|-----3h5-5~------6h5-5~--|------3h5-5~-6-5-3-5--|
F|-------------------------|----------------------|
C|-4-4---------4-4---------|--4-4-----------------|
G|-2-2---------2-2---------|--2-2-----------------|
C|-4-4---------4-4---------|--4-4-----------------|


  Figure B
d|-------------------------|-------------------------|
A|-------------------------|-------------------------|
F|-------------------------|-------------------------|
C|-3-3-2p0-2~--3-3-2p0-2~--|--3-3-2p0-2~-3p2p0-2p0---|
G|-1-1---------1-1---------|--1-1------------------0-|
C|-3-3---------3-3---------|--3-3--------------------|


[Breakdown pt. 2]

d|-----|-----|-----|-----|-----|-----|-----|-----|
A|-----|-----|-----|-----|-----|-----|-----|-----|
F|--7--|--4--|--10-|--4--|--7--|--4--|--9--|--10-|
C|--7--|--4--|--10-|--4--|--7--|--4--|--9--|--10-|
G|--5--|--2--|--8--|--2--|--5--|--2--|--7--|--8--|
C|-----|-----|-----|-----|-----|-----|-----|-----|


[Breakdown pt. 3]

  Repeat throughout
d|-----|-----|-----|-----|-----|
A|-----|-----|-----|-----|-----|
F|-----|-----|--5--|--6--|--8--|
C|--7--|--7--|--7--|--7--|--7--|
G|-----|-----|-----|-----|-----|
C|-----|-----|-----|-----|-----|


[Chorus]

  Repeat throughout
d|------------------------|
A|------------------------|
F|------------------------|
C|-5/7-777-8888-7777-1010-|
G|-5/7-777-8888-7777-1010-|
C|-5/7-777-8888-7777-1010-|


[Solo]

  
d|-------------------------------------------------|
A|-------------------------------------------------|
F|-12h14-1414~141414141414/17-1717~-171717171717---|
C|-------------------------------------------------|
G|-------------------------------------------------|
C|-------------------------------------------------|


d|------------------------------------------|
A|-13h15-1515~-1515-15b16-15b16-15b16-15b16-|
F|------------------------------------------|
C|------------------------------------------|
G|------------------------------------------|
C|------------------------------------------|


d|-----------------------------|
A|-15h17-1717~-1717~-17171717~-|
F|-----------------------------|
C|-----------------------------|
G|-----------------------------|
C|-----------------------------|

(Repeat once)

d|-17-----17-17----17----17----17----17----17----17----17----|
A|-20b22hb22-20b22-20b22-20b22-20b22-20b22-20b22-20b22-20b22-|
F|-----------------------------------------------------------|
C|-----------------------------------------------------------|
G|-----------------------------------------------------------|
C|-----------------------------------------------------------|


d|--------------------------------------|
A|-5------------------------------------|
F|-7b9~~9r7---5~------------------------|
C|----------7----7~-7~-7~-7p5-----------|
G|---------------------------7~-7p5p3-0-|
C|--------------------------------------|


[Chorus]

  Repeat throughout
d|------------------------|
A|------------------------|
F|------------------------|
C|-5/7-777-8888-7777-1010-|
G|-5/7-777-8888-7777-1010-|
C|-5/7-777-8888-7777-1010-|

d|----------|
A|----------|
F|----------|
C|-5/7-7\\--|
G|-5/7-7\\--|
C|-5/7-7\\--|



************************************

  h = hammer on
  p = pull off
  b = bend to
  hb = hold bend
  r = bend release to
  ~ = vibrato
  / = slide up to
  \ = slide down to
  \\ = slide all the way down

************************************

            
            
Suggest correction
Creating personal tab
Creating personal tab
You can edit any tab online and save it as your Personal.

You can edit, replace or remove any tab part or add personal notes – all changes will be seen only by you.

Personal tabs can be accessed anytime from any device, even offline.
Learn more »
Give kudos to tab author, rate the tab!
1 2 3 4 5
comments
print report bad tab
guest
You may want to rate the tab now too:
select rating
Wanna post a correction for this tab? Suggest correction