Oops, an error
Loading. Please wait.

Prehistoric Dog bass

version 1
version 1

Whole song

Interactive

8,101 views 36 this week
2 commentsread comments
1 2 3 4 5
x 3
add to favorites
×
Save as Personal and add changes to this tab that will be seen only by you. Learn more ›
×
You can save this tab as Personal to edit and correct it or add notes. All changes will be seen only by you. Learn more »
launch autoscroll
font size
0
reset
guitar tuner
edit
Autoscroll
slow
fast
+/-
esc
set tempo
stop
Author
-------------------------------------------------------------------------------
                             Red Fang - Prehistoric Dog
-------------------------------------------------------------------------------
Tabbed by: Zaqq

Tuning: standard (EADG)

Notes: it is played with overdrive

The song is mostly in 3/4 time. I notated when the signature changes.

  Intro

G|----------|-----------|----------|-------------|
D|----------|-----------|----------|-------------|
A|-9\-------|-9\------7-|-9\-------|-------5-----|
E|-7\-------|-7\------5-|-7\-------|-6-3-3---5-6-|

G|----------|-----------|----------|-------------|-------------|
D|----------|-----------|----------|-------------|-------------|
A|-9\-------|-9\------7-|-9\-------|-------5-----|-------5-----|
E|-7\-------|-7\------5-|-7\-------|-6-3-3---5-6-|-6-3-3---5-6-|


  Pre-Verse

  4/4           3/4         4/4           3/4
G|-------------|-----------|-------------|-----------|                    \
D|-------------|-----------|-------------|-----------|                     \
A|-------------|-----------|-------------|-----------|
E|-7-77-77-77-7|-5-77-77-7-|-7-77-77-77-7|-5-77-77-7-|                       x 2

   4/4                   3/4            4/4           3/4 
G|---------------------|---------------|-------------|-----------------|   /
D|---------------------|---------------|-------------|-----------------|  /
A|---------------------|---------------|-------------|-------5-7-5-----|
E|-10-1010-1010-1010-10|-8-1010-1010-10|-7-77-77-77-7|-5-7-7-------7-5-|
       (10 - ten)


  Verse

G|-------------|   repeat    |-------------|-------------|
D|-------------|     as      |-------------|-------------|
A|-------------|  necessary  |------------9|~~-----------|
E|-7-07-07-07-0|             |-7-07-07-07-7|~~-----------|


  Chorus

G|-------------|----------------|------------|-------------|
D|-------------|----------------|------------|-------------| x 2
A|--------5-7--|---------575----|--------5-7-|-------5-----|
E|-7-7777------|-7-7p5h7-----75-|-7-7777-----|-6-3-3---5-6-|

G|----------|-----------|----------|-------------|
D|----------|-----------|----------|-------------|
A|-9\-------|-9\------7-|-9\-------|-------5-----|
E|-7\-------|-7\------5-|-7\-------|-6-3-3---5-6-|

G|----------|-----------|----------|
D|----------|-----------|----------|
A|-9\-------|-9\------7-|-9\-------|
E|-7\-------|-7\------5-|-7\-------|


  !! Repeat Pre-Verse !!


  Break
G|-------------|
D|-------------|
A|-9\----------|
E|-7\----------|


  Verse and Solo
                              end solo with
G|-------------|   repeat    |-------------|
D|-------------|     as      |-------------|
A|-------------|  necessary  |----9--8--7--|
E|-7-07-07-07-0|             |-7-----------|

G|-------------|   repeat    
D|-------------|     as      
A|-------------|  necessary  
E|-7-07-07-07-0|


  Break

G|--------------|--------------|--------------|-------------|
D|--------------|--------------|--------------|-------------|
A|--------------|--------------|--------------|----9--8--7--|
E|-777777577777-|-777777577777-|-777777577777-|-7-----------|

  Final verse
  
G|-------------|      |-----------|
D|-------------| x 7  |-----------|
A|-------------|      |---5--5----|
E|-7-07-07-07-0|      |-7------5--|

G|-------------|      |-----------|
D|-------------| x 3  |-----------|
A|-------------|      |---5----5--|
E|-7-07-07-07-0|      |-7----7----|

G|-------------|      |-----------|
D|-------------| x 3  |-----------|
A|-------------|      |------5----|
E|-7-07-07-07-0|      |-7-5----5--|

G|-------------|      |-----------|
D|-------------| x 3  |-----------|
A|-------------|      |---5-------|
E|-7-07-07-07-0|      |-7----7-0--|

G|-------------|      |-------------|-------------|
D|-------------| x 3  |-------------|-------------|
A|-------------|      |-------------|-9~----------|
E|-7-07-07-07-0|      |-7-7-7-7-7-7-|-7~----------|


| /  slide up
| \  slide down
| h  hammer-on
| p  pull-off
============================================================================
Suggest correction
Creating personal tab
Creating personal tab
You can edit any tab online and save it as your Personal.

You can edit, replace or remove any tab part or add personal notes – all changes will be seen only by you.

Personal tabs can be accessed anytime from any device, even offline.
Learn more »
Give kudos to tab author, rate the tab!
1 2 3 4 5
comments
print report bad tab
2 comments total.
0 reply
Pindapoeper 145 Sep 10, 2013 10:44 AM

Thanks for the tab dude! Sweet!!

0 reply
EdsonMezquiti 10 Dec 03, 2013 04:24 PM

G|----------|-----------|----------|-------------|
D|----------|-----------|----------|-------------|
A|-9\-------|-9\------7-|-9\-------|-------5-----|
E|-7\-------|-7\------5-|-7\-------|-6-3-3---5-6-|


It should be

G|----------|-----------|----------|-------------|
D|----------|-----------|----------|-------------|
A|-9\-------|-9\------7-|-9\-------|-------5-----|
E|-7\-------|-7\------5-|-7\-------|-6-3-3---3-5-|

guest
You may want to rate the tab now too:
select rating
Wanna post a correction for this tab? Suggest correction