Oops, an error
Loading. Please wait.

The Undertow bass

25 views 1 this week
no commentswrite comment
1 2 3 4 5
3 more votes to show rating
add to favorites
×
Save as Personal and add changes to this tab that will be seen only by you. Learn more ›
×
You can save this tab as Personal to edit and correct it or add notes. All changes will be seen only by you. Learn more »
launch autoscroll
font size
0
reset
guitar tuner
edit
Autoscroll
slow
fast
+/-
esc
set tempo
stop
Artist: Red Fang
Song: The Undertow
Album: Murder the Mountains
Tuning: Standard

[Intro]

(for the rhythm, listen carefully to the first seconds of the song,
also use some distortion or overdrive for the right sound)
G|----5-----5---|-4-5-4---------|-4h5p4---------|
D|--------------|-----------7-5-|-------5-7-----|    
A|--------------|---------------|-----------5-3-| 4x
E|-5-----5----5-|--------5------|---------------|

G|----5-----5---|-5/7-4---------|-4h5p4---------|
D|--------------|-----------7-5-|-------5-7-----|
A|--------------|---------------|-----------5-3-|
E|-5-----5----5-|--------5------|---------------|

G|----5-----5---|-4-5-4---------|-4h5p4---------|
D|--------------|-----------7-5-|-------5-7-----|    
A|--------------|---------------|-----------5-3-| 3x
E|-5-----5----5-|--------5------|---------------|

G|----5-----5---|-5/7-4---------|-4h5p4---------|
D|--------------|-----------7-5-|-------5-7-----|
A|--------------|---------------|-----------5-3-|
E|-5-----5----5-|--------5------|---------------|

G|----5-----5---|-4-5-4---------|-4h5p4---------|
D|--------------|-----------7-5-|-------5-7-----|    
A|--------------|---------------|-----------5-3-| 
E|-5-----5----5-|--------5------|---------------|

[Verse]

(vocals are coming in)
G|--------------|----------------|-4h5p4---------|
D|--------------|----------------|-------5-7-----|
A|--------------|----------------|-----------5-3-|  2x
E|-5------------|----------------|---------------|

G|--------------|----------------|-4h5p4---------|
D|--------------|----------------|-------5-7-----|
A|-5------------|----------------|-----------5-3-|
E|--------------|----------------|---------------|

G|--------------|----------------|-4h5p4---------|
D|--------------|----------------|-------5-7-----|
A|--------------|----------------|-----------5-3-|  
E|-5------------|----------------|---------------|

G|--------------|---------|
D|--------------|---------|
A|-3------------|-5--7-7\-|
E|--------------|---------|

[Chorus]

G|----5-----5---|-4-5-4---------|-4h5p4---------|
D|--------------|-----------7-5-|-------5-7-----|    
A|--------------|---------------|-----------5-3-| 2x
E|-5-----5----5-|--------5------|---------------|

G|----5-----5---|-5/7-4---------|-4h5p4---------|
D|--------------|-----------7-5-|-------5-7-----|
A|--------------|---------------|-----------5-3-|
E|-5-----5----5-|--------5------|---------------|

G|----5-----5---|-4-5-4---------|-4h5p4---------|
D|--------------|-----------7-5-|-------5-7-----|    
A|--------------|---------------|-----------5-3-| 
E|-5-----5----5-|--------5------|---------------|

[Verse]

(vocals again)
G|--------------|----------------|-4h5p4---------|
D|--------------|----------------|-------5-7-----|
A|--------------|----------------|-----------5-3-|  2x
E|-5------------|----------------|---------------|

G|--------------|----------------|-4h5p4---------|
D|--------------|----------------|-------5-7-----|
A|-5------------|----------------|-----------5-3-|
E|--------------|----------------|---------------|

G|--------------|----------------|-4h5p4---------|
D|--------------|----------------|-------5-7-----|
A|--------------|----------------|-----------5-3-|  
E|-5------------|----------------|---------------|

G|--------------|----------------|---------------|
D|--------------|----------------|---------------|
A|-3------------|-5--7-7\--------|---------------|
E|--------------|----------------|-5-------------|

[Outro]

G|---------|---------|---------|
D|---------|---------|---------|
A|------5--|------3--|------3--| 2x
E|-5-5-----|-5-5-----|-5-6-----|

G|---------|---------|---------|
D|---------|---------|---------|
A|------2--|------2--|---2--3--|
E|-5-5-----|-5-------|-5-------|

G|---------|---------|---------|
D|---------|---------|---------|
A|------5--|------3--|------3--| 
E|-5-5-----|-5-5-----|-5-6-----|

G|---------|---------|---------|
D|---------|---------|---------|
A|------2--|------2--|---2--3--|
E|-5-5-----|-5-------|-5-------|

G|---------|---------|---------|
D|---------|---------|---------|
A|------5--|------3--|------3--| 2x
E|-5-5-----|-5-5-----|-5-6-----|

***************************************************

h hammer on
p pull off
/ slide up
\ slide down

***************************************************
Suggest correction
Creating personal tab
Creating personal tab
You can edit any tab online and save it as your Personal.

You can edit, replace or remove any tab part or add personal notes – all changes will be seen only by you.

Personal tabs can be accessed anytime from any device, even offline.
Learn more »
Give kudos to tab author, rate the tab!
1 2 3 4 5
comments
print report bad tab
guest
You may want to rate the tab now too:
select rating
Wanna post a correction for this tab? Suggest correction