Oops, an error
Loading. Please wait.

Wires bass

version 1
version 1

Whole song

Interactive

8,360 views 33 this week
3 commentsread comments
1 2 3 4 5
x 4
add to favorites
×
Save as Personal and add changes to this tab that will be seen only by you. Learn more ›
×
You can save this tab as Personal to edit and correct it or add notes. All changes will be seen only by you. Learn more »
launch autoscroll
font size
0
reset
guitar tuner
backing track
0:00
0:00
edit
Autoscroll
slow
fast
+/-
esc
set tempo
stop
Author
Difficulty
Wires - Red Fang
Tabbed by: Zaqq
Tuning: standard (EADG)

[Notes] it's played with overdrive using a pick.

[Intro]
  (no bass)

  then
G|--------------|
D|--------------|
A|-5-----9------|
E|----5-----8---|

[Verse 1]
G|--------------|--------------|------------|--------------|
D|--------------|--------------|------------|--------------|
A|--------------|--------------|------------|--------------|
E|-7--7--7--7-5-|-7--7--7--7-5-|-7--7--7--7-|-7--7--7--7-5-|

G|------------|--------------|------------|------------|
D|------------|--------------|------------|------------|
A|------------|--------------|------------|------------|
E|-7--7--7--7-|-7--7--7--7-5-|-7--7--7--7-|-7--7--7--7-|

G|-------------|------------|------------|------------|
D|-------------|------------|------------|------------|
A|-------------|------------|------------|------------|
E|-6--6--6--6--|-6--6--6--6-|-6--6--6--6-|-6--6--6--6-|

G|------------|--------------|------------|--------------|
D|------------|--------------|------------|--------------|
A|------------|--------------|------------|--------------|
E|-7--7--7--7-|-7--7--7--7-5-|-7--7--7--7-|-7--7--7--7-5-|

G|------------|--------------|------------|------------|
D|------------|--------------|------------|------------|
A|------------|--------------|------------|------------|
E|-7--7--7--7-|-7--7--7--7-5-|-7--7--7--7-|-7--7--7--7-|

G|-------------|------------|------------|------------|
D|-------------|------------|------------|------------|
A|-------------|------------|------------|------------|
E|-6--6--6--6--|-6--6--6--6-|-6--6--6--6-|-6--6--6--6-|

                                                / 3 \
G|-------------|------------|------------|------------|
D|-------------|------------|------------|------------|
A|-------------|------------|-5--5--5--5-|-9--9-1---5-|
E|-7--7--7--7--|-7--7--7--7-|------------|--------2---|

[Interlude]
G|-------------|-------------|                               \
D|-------------|-------------| slide the '7' down decreasing  \  x 2
A|-9\----------|-------------| the volume after every time,   /
E|-7\---h7\----|h7\---h7\----| and don't pick it             /

G|--------------|
D|--------------|
A|-5-----9------|
E|----5-----8---|

[Verse 2]
G|------------|--------------|------------|--------------|
D|------------|--------------|------------|--------------|
A|------------|--------------|------------|--------------|
E|-7--7--7--7-|-7--7--7--7-5-|-7--7--7--7-|-7--7--7--7-5-|

G|------------|--------------|------------|------------|
D|------------|--------------|------------|------------|
A|------------|--------------|------------|------------|
E|-7--7--7--7-|-7--7--7--7-5-|-7--7--7--7-|-7--7--7--7-|

G|-------------|------------|------------|------------|
D|-------------|------------|------------|------------|
A|-------------|------------|------------|------------|
E|-6--6--6--6--|-6--6--6--6-|-6--6--6--6-|-6--6--6--6-|

G|------------|--------------|------------|--------------|
D|------------|--------------|------------|--------------|
A|------------|--------------|------------|--------------|
E|-7--7--7--7-|-7--7--7--7-5-|-7--7--7--7-|-7--7--7--7-5-|

G|------------|--------------|------------|------------|
D|------------|--------------|------------|------------|
A|------------|--------------|------------|------------|
E|-7--7--7--7-|-7--7--7--7-5-|-7--7--7--7-|-7--7--7--7-|

G|-------------|------------|------------|------------|
D|-------------|------------|------------|------------|
A|-------------|------------|------------|------------|
E|-6--6--6--6--|-6--6--6--6-|-6--6--6--6-|-6--6--6--6-|

                                                / 3 \
G|-------------|------------|------------|------------|
D|-------------|------------|------------|------------|
A|-------------|------------|-5--5--5--5-|-9--9-1---5-|
E|-7--7--7--7--|-7--7--7--7-|------------|--------2---|

  Dual guitar harmony interlude
G|---------|--------|----------|----------|---------|--------|----------|----------|
D|---------|--------|----------|----------|---------|--------|----------|----------| x 2
A|---------|--------|----------|----------|---------|--------|--------7-|-5--------|
E|-7----5--|-7------|-5h7--5h7-|-5h7--5h7-|-2-------|---7\---|-1--------|----------|
                      (fast hammer on's)

G|---------|--------|---------|---------|---------|--------|---------|---------|
D|---------|--------|---------|---------|---------|--------|---------|---------|
A|---------|--------|---------|---------|---------|--------|---------|---------|
E|-7----5--|-3------|-2----3--|-5----6--|-9-------|----7---|-10------|-12b-----|

G|---------|--------|----------|----------|---------|--------|----------|----------|
D|---------|--------|----------|----------|---------|--------|----------|----------|
A|---------|--------|----------|----------|---------|--------|--------7-|-5--------|
E|-7----5--|-7------|-5h7--5h7-|-5h7--5h7-|-2-------|~--7\---|-1--------|----------|

G|--------------|
D|--------------|
A|-5-----9------|
E|----5-----8---|

[Outro] (I put the time signatures for easier understanding)
  4/4           5/4                    6/4                        4/4
G|-------------|----------------------|-------------------|     |--------------|
D|-------------|----------------------|-------------------| x 4 |--------------|
A|-------------|--------7h9p7---------|----------------5--|     |-5-----9------|
E|-7---7-5h7-7-|~-7-5h7-------7-5-3-5-|-2--2-2h3-2--0-----|     |----5-----8---|

G|-------------|----------------------|-------------------|     |--------------|
D|-------------|----------------------|-------------------| x 4 |--------------|
A|-------------|--------7h9p7---------|----------------5--|     |-5-----9------|
E|-7---7-5h7-7-|~-7-5h7-------7-5-3-5-|-2--2-2h3-2--0-----|     |----5-----8---|

G|-------------|----------------------|-------------------| 
D|-------------|----------------------|-------------------|
A|-------------|--------7h9p7---------|----------------5--| repeat till the song ends
E|-7---7-5h7-7-|~-7-5h7-------7-5-3-5-|-2--2-2h3-2--0-----|

************************************

| \  Slide down
| h  Hammer-on
| b  Bend
| ~  Vibrato
| p  Pull-off
 

************************************

            
            
Suggest correction
Creating personal tab
Creating personal tab
You can edit any tab online and save it as your Personal.

You can edit, replace or remove any tab part or add personal notes – all changes will be seen only by you.

Personal tabs can be accessed anytime from any device, even offline.
Learn more »
comments
print report bad tab
3 comments total.
0 reply
Pindapoeper 145 Sep 10, 2013 10:43 AM

Thanks for the awesome red fang tabs Zaqq! Much appreciated!!

0 reply
leograssi90 501 Jan 09, 2015 01:12 AM

I think I love you! :-D Excellent tab!

guest
You may want to rate the tab now too:
select rating
Wanna post a correction for this tab? Suggest correction