Oops, an error
Loading. Please wait.

Wires tab

version 4
version 4

Whole song

Interactive

604 views 12 this week
no commentswrite comment
1 2 3 4 5
2 more votes to show rating
add to favorites
×
Save as Personal and add changes to this tab that will be seen only by you. Learn more ›
×
You can save this tab as Personal to edit and correct it or add notes. All changes will be seen only by you. Learn more »
launch autoscroll
font size
0
reset
how to read this tab
guitar tuner
backing track
0:00
0:00
edit
Autoscroll
slow
fast
+/-
esc
set tempo
stop
About this tab version
Drop D version of the song, which is easier to play than in E standard. Was this info helpful? Yes No
Wires - Red Fang
Album: Wires
Tabbed by: Mitchell van Manen
Tuning: DADGBe


[Intro] x2

e||-------------------------------------------------------------------|
B||-------------------------------------------------------------------|
G||-------------------------------------------------------------------|
D||-------------------------------------------------------------------|
A||-------------------9-9-9-9-9-9-9-9-9-9-9-9-9-9-9-9-9-9-9-9-9-9-9-9-|
D||-9-9-9-9-9-9-9-9-7-9-9-9-9-9-9-9-9-9-9-9-9-9-9-9-9-9-9-9-9-9-9-9-9-|

e|-------------------------------------------------------------------------||
B|-------------------------------------------------------------------------||
G|-------------------------------------------------------------------------||
D|-------------------7/9---------------------------------------------------||
A|-------------------------8-8-8-8-8-8-8-8-8-8-8-8-8-8-8-8-8-8-8\7-5/7\5-0-||
D|-7-7-7-7-7-7-7/9-9-----9-9-9-9-9-9-9-9-9-9-9-9-9-9-9-9-9-9-9-------------||


[Interlude Riff]

(This little riff is repeated multiple time throughout the song)

e|-----------|
B|-----------|
G|-7---11----|
D|-7-7-11-10-|
A|-5-7-9--10-|
D|---7----10-|


[Verse]

e||-------------------||---------------------------------|
B||-------------------||---------------------------------|
G||-------------------||---------------------------------|
D||-------------------||---------------------------------|
A||-9-9-9-9-7-9-9-9-9-||-8-8-8-8-8-8-8-8-8-8-8-8-8-8-8-8-|
D||-9-9-9-9-7-9-9-9-9-||-8-8-8-8-8-8-8-8-8-8-8-8-8-8-8-8-|

The little riff in the background.

e|-------|
B|-5b6-3-|
G|-------|
D|-------|
A|-------|
D|-------|

Play the first bar 4 times before proceeding into the next bar which you
only play one time through.
     
e|-------------------------------|
B|-----------------------------3-|
G|-7-7-7-7-7--11-11-11-11--3---2-|
D|-7-7-7-7-7--11-11-11-11--3-4-0-|
A|-5-5-5-5-5--9--9--9--9---1-4---|
D|---------------------------4---|


[Instrumental] x2

e||-------------------------------------------------------------------|
B||-------------------------------------------------------------------|
G||-------------------------------------------------------------------|
D||-------------------------------------------------------------------|
A||-------------------9-9-9-9-9-9-9-9-9-9-9-9-9-9-9-9-9-9-9-9-9-9-9-9-|
D||-9-9-9-9-9-9-9-9-7-9-9-9-9-9-9-9-9-9-9-9-9-9-9-9-9-9-9-9-9-9-9-9-9-|

e|-------------------------------------------------------------------------||
B|-------------------------------------------------------------------------||
G|-------------------------------------------------------------------------||
D|-------------------7/9---------------------------------------------------||
A|-------------------------8-8-8-8-8-8-8-8-8-8-8-8-8-8-8-8-8-8-8\7-5/7\5-0-||
D|-7-7-7-7-7-7-7/9-9-----9-9-9-9-9-9-9-9-9-9-9-9-9-9-9-9-9-9-9-------------||


[Interlude Riff]

e|-----------|
B|-----------|
G|-7---11----|
D|-7-7-11-10-|
A|-5-7-9--10-|
D|---7----10-|


[Verse]

e||-------------------||---------------------------------|
B||-------------------||---------------------------------|
G||-------------------||---------------------------------|
D||-------------------||---------------------------------|
A||-9-9-9-9-7-9-9-9-9-||-8-8-8-8-8-8-8-8-8-8-8-8-8-8-8-8-|
D||-9-9-9-9-7-9-9-9-9-||-8-8-8-8-8-8-8-8-8-8-8-8-8-8-8-8-|

The little riff in the background.

e|-------|
B|-5b6-3-|
G|-------|
D|-------|
A|-------|
D|-------|

Play the first bar 4 times before proceeding into the next bar which you
only play one time through.
     
e|-------------------------------|
B|-----------------------------3-|
G|-7-7-7-7-7--11-11-11-11--3---2-|
D|-7-7-7-7-7--11-11-11-11--3-4-0-|
A|-5-5-5-5-5--9--9--9--9---1-4---|
D|---------------------------4---|


[Bridge]

e||-------------------------------------------------||
B||-------------------------------------------------||
G||-------------------------------------------------||x2
D||-----------------9------------9-7-----9\3--2p0---||
A||-9-----------------9--------9--------------------||
D||-----12-9--9-12------9-12------------------------||

Repeat this bar once, then after playing the second bar play it once again and go to the outro.

e|-----------------------------------------|
B|-----------------------------------------|
G|-----------------------------------------|
D|--4----5--5--4--5--7--8/11--9--12--14b15-|
A|-----5-----------------------------------|
D|-----------------------------------------|


[Interlude Riff]

e|-----------|
B|-----------|
G|-7---11----|
D|-7-7-11-10-|
A|-5-7-9--10-|
D|---7----10-|


[Outro]

e|------------------------------------------------|
B|------------------------------------------------|
G|------------------------------------------------|
D|-9-9-7/9--9--7/9-------------------4-4-5-4--2-0-|
A|-9-9-7/9--9--7/9---7h8p7p5---------4-4-5-4--2-0-|
D|-9-9-7/9--9--7/9-----------9-7-5-7-4-4-5-4--2-0-|

That's the outro riff, then you also play Riff A from time to time.


***********************************
| /  slide up
| \  slide down
| b  Bend
| h  hammer-on
| p  pull-off
| ~  vibrato
| x  Mute note
***********************************
Suggest correction
Creating personal tab
Creating personal tab
You can edit any tab online and save it as your Personal.

You can edit, replace or remove any tab part or add personal notes – all changes will be seen only by you.

Personal tabs can be accessed anytime from any device, even offline.
Learn more »
Give kudos to tab author, rate the tab!
1 2 3 4 5
comments
print report bad tab
guest
You may want to rate the tab now too:
select rating
Wanna post a correction for this tab? Suggest correction